  0
SECTION
  2
HEADER
  9
$ACADVER
  1
AC1015
  9
$ACADMAINTVER
 70
     6
  9
$DWGCODEPAGE
  3
ANSI_1254
  9
$INSBASE
 10
0.0
 20
0.0
 30
0.0
  9
$EXTMIN
 10
0.0
 20
0.0
 30
0.0
  9
$EXTMAX
 10
279.4
 20
215.9
 30
0.0
  9
$LIMMIN
 10
0.0
 20
0.0
  9
$LIMMAX
 10
279.4
 20
215.9
  9
$ORTHOMODE
 70
     0
  9
$REGENMODE
 70
     1
  9
$FILLMODE
 70
     1
  9
$QTEXTMODE
 70
     0
  9
$MIRRTEXT
 70
     1
  9
$LTSCALE
 40
1.0
  9
$ATTMODE
 70
     1
  9
$TEXTSIZE
 40
3.5
  9
$TRACEWID
 40
1.0
  9
$TEXTSTYLE
  7
Standard
  9
$CLAYER
  8
0
  9
$CELTYPE
  6
ByLayer
  9
$CECOLOR
 62
   256
  9
$CELTSCALE
 40
1.0
  9
$DISPSILH
 70
     0
  9
$DIMSCALE
 40
1.0
  9
$DIMASZ
 40
3.5
  9
$DIMEXO
 40
1.0
  9
$DIMDLI
 40
3.75
  9
$DIMRND
 40
0.0
  9
$DIMDLE
 40
0.0
  9
$DIMEXE
 40
1.0
  9
$DIMTP
 40
0.0
  9
$DIMTM
 40
0.0
  9
$DIMTXT
 40
3.5
  9
$DIMCEN
 40
2.5
  9
$DIMTSZ
 40
0.0
  9
$DIMTOL
 70
     0
  9
$DIMLIM
 70
     0
  9
$DIMTIH
 70
     1
  9
$DIMTOH
 70
     1
  9
$DIMSE1
 70
     0
  9
$DIMSE2
 70
     0
  9
$DIMTAD
 70
     1
  9
$DIMZIN
 70
     0
  9
$DIMBLK
  1

  9
$DIMASO
 70
     1
  9
$DIMSHO
 70
     1
  9
$DIMPOST
  1

  9
$DIMAPOST
  1

  9
$DIMALT
 70
     0
  9
$DIMALTD
 70
     3
  9
$DIMALTF
 40
0.0393700787
  9
$DIMLFAC
 40
1.0
  9
$DIMTOFL
 70
     1
  9
$DIMTVP
 40
0.0
  9
$DIMTIX
 70
     0
  9
$DIMSOXD
 70
     0
  9
$DIMSAH
 70
     0
  9
$DIMBLK1
  1

  9
$DIMBLK2
  1

  9
$DIMSTYLE
  2
ISO-25
  9
$DIMCLRD
 70
     0
  9
$DIMCLRE
 70
     0
  9
$DIMCLRT
 70
     0
  9
$DIMTFAC
 40
1.0
  9
$DIMGAP
 40
1.524
  9
$DIMJUST
 70
     0
  9
$DIMSD1
 70
     0
  9
$DIMSD2
 70
     0
  9
$DIMTOLJ
 70
     0
  9
$DIMTZIN
 70
     0
  9
$DIMALTZ
 70
     0
  9
$DIMALTTZ
 70
     0
  9
$DIMUPT
 70
     0
  9
$DIMDEC
 70
     2
  9
$DIMTDEC
 70
     2
  9
$DIMALTU
 70
     2
  9
$DIMALTTD
 70
     3
  9
$DIMTXSTY
  7
Standard
  9
$DIMAUNIT
 70
     0
  9
$DIMADEC
 70
     2
  9
$DIMALTRND
 40
0.0
  9
$DIMAZIN
 70
     0
  9
$DIMDSEP
 70
    44
  9
$DIMATFIT
 70
     3
  9
$DIMFRAC
 70
     0
  9
$DIMLDRBLK
  1

  9
$DIMLUNIT
 70
     2
  9
$DIMLWD
 70
    -2
  9
$DIMLWE
 70
    -2
  9
$DIMTMOVE
 70
     0
  9
$LUNITS
 70
     2
  9
$LUPREC
 70
     2
  9
$SKETCHINC
 40
1.0
  9
$FILLETRAD
 40
10.0
  9
$AUNITS
 70
     0
  9
$AUPREC
 70
     2
  9
$MENU
  1
.
  9
$ELEVATION
 40
0.0
  9
$PELEVATION
 40
0.0
  9
$THICKNESS
 40
0.0
  9
$LIMCHECK
 70
     0
  9
$CHAMFERA
 40
0.0
  9
$CHAMFERB
 40
0.0
  9
$CHAMFERC
 40
0.0
  9
$CHAMFERD
 40
0.0
  9
$SKPOLY
 70
     0
  9
$TDCREATE
 40
2458985.718213657
  9
$TDUCREATE
 40
2458985.593213657
  9
$TDUPDATE
 40
2458985.718214016
  9
$TDUUPDATE
 40
2458985.593214016
  9
$TDINDWG
 40
0.0000000116
  9
$TDUSRTIMER
 40
0.0000000116
  9
$USRTIMER
 70
     1
  9
$ANGBASE
 50
0.0
  9
$ANGDIR
 70
     0
  9
$PDMODE
 70
     0
  9
$PDSIZE
 40
-1.0
  9
$PLINEWID
 40
0.0
  9
$SPLFRAME
 70
     0
  9
$SPLINETYPE
 70
     6
  9
$SPLINESEGS
 70
     8
  9
$HANDSEED
  5
E1
  9
$SURFTAB1
 70
     6
  9
$SURFTAB2
 70
     6
  9
$SURFTYPE
 70
     6
  9
$SURFU
 70
     6
  9
$SURFV
 70
     6
  9
$UCSBASE
  2

  9
$UCSNAME
  2

  9
$UCSORG
 10
0.0
 20
0.0
 30
0.0
  9
$UCSXDIR
 10
1.0
 20
0.0
 30
0.0
  9
$UCSYDIR
 10
0.0
 20
1.0
 30
0.0
  9
$UCSORTHOREF
  2

  9
$UCSORTHOVIEW
 70
     0
  9
$UCSORGTOP
 10
0.0
 20
0.0
 30
0.0
  9
$UCSORGBOTTOM
 10
0.0
 20
0.0
 30
0.0
  9
$UCSORGLEFT
 10
0.0
 20
0.0
 30
0.0
  9
$UCSORGRIGHT
 10
0.0
 20
0.0
 30
0.0
  9
$UCSORGFRONT
 10
0.0
 20
0.0
 30
0.0
  9
$UCSORGBACK
 10
0.0
 20
0.0
 30
0.0
  9
$PUCSBASE
  2

  9
$PUCSNAME
  2

  9
$PUCSORG
 10
0.0
 20
0.0
 30
0.0
  9
$PUCSXDIR
 10
1.0
 20
0.0
 30
0.0
  9
$PUCSYDIR
 10
0.0
 20
1.0
 30
0.0
  9
$PUCSORTHOREF
  2

  9
$PUCSORTHOVIEW
 70
     0
  9
$PUCSORGTOP
 10
0.0
 20
0.0
 30
0.0
  9
$PUCSORGBOTTOM
 10
0.0
 20
0.0
 30
0.0
  9
$PUCSORGLEFT
 10
0.0
 20
0.0
 30
0.0
  9
$PUCSORGRIGHT
 10
0.0
 20
0.0
 30
0.0
  9
$PUCSORGFRONT
 10
0.0
 20
0.0
 30
0.0
  9
$PUCSORGBACK
 10
0.0
 20
0.0
 30
0.0
  9
$USERI1
 70
     0
  9
$USERI2
 70
     0
  9
$USERI3
 70
     0
  9
$USERI4
 70
     0
  9
$USERI5
 70
     0
  9
$USERR1
 40
0.0
  9
$USERR2
 40
0.0
  9
$USERR3
 40
0.0
  9
$USERR4
 40
0.0
  9
$USERR5
 40
0.0
  9
$WORLDVIEW
 70
     1
  9
$SHADEDGE
 70
     3
  9
$SHADEDIF
 70
    70
  9
$TILEMODE
 70
     1
  9
$MAXACTVP
 70
    64
  9
$PINSBASE
 10
0.0
 20
0.0
 30
0.0
  9
$PLIMCHECK
 70
     0
  9
$PEXTMIN
 10
1.0000000000E+20
 20
1.0000000000E+20
 30
1.0000000000E+20
  9
$PEXTMAX
 10
-1.0000000000E+20
 20
-1.0000000000E+20
 30
-1.0000000000E+20
  9
$PLIMMIN
 10
0.0
 20
0.0
  9
$PLIMMAX
 10
420.0
 20
297.0
  9
$UNITMODE
 70
     0
  9
$VISRETAIN
 70
     1
  9
$PLINEGEN
 70
     0
  9
$PSLTSCALE
 70
     1
  9
$TREEDEPTH
 70
  3020
  9
$CMLSTYLE
  2
Standard
  9
$CMLJUST
 70
     0
  9
$CMLSCALE
 40
20.0
  9
$PROXYGRAPHICS
 70
     1
  9
$MEASUREMENT
 70
     1
  9
$CELWEIGHT
370
    -1
  9
$ENDCAPS
280
     0
  9
$JOINSTYLE
280
     0
  9
$LWDISPLAY
290
     1
  9
$INSUNITS
 70
     4
  9
$HYPERLINKBASE
  1

  9
$STYLESHEET
  1

  9
$XEDIT
290
     1
  9
$CEPSNTYPE
380
     0
  9
$PSTYLEMODE
290
     1
  9
$FINGERPRINTGUID
  2
{1cdc6581-1ca4-4f23-8e0a-f20f1264cdc5}
  9
$VERSIONGUID
  2
{FAEB1C32-E019-11D5-929B-00C0DF256EC4}
  9
$EXTNAMES
290
     1
  9
$PSVPSCALE
 40
0.0
  9
$OLESTARTUP
290
     0
  0
ENDSEC
  0
SECTION
  2
CLASSES
  0
CLASS
  1
ACDBDICTIONARYWDFLT
  2
AcDbDictionaryWithDefault
  3
ObjectDBX Classes
 90
        0
280
     0
281
     0
  0
CLASS
  1
VISUALSTYLE
  2
AcDbVisualStyle
  3
ObjectDBX Classes
 90
     4095
280
     0
281
     0
  0
CLASS
  1
MATERIAL
  2
AcDbMaterial
  3
ObjectDBX Classes
 90
     1153
280
     0
281
     0
  0
CLASS
  1
SCALE
  2
AcDbScale
  3
ObjectDBX Classes
 90
     1153
280
     0
281
     0
  0
CLASS
  1
TABLESTYLE
  2
AcDbTableStyle
  3
ObjectDBX Classes
 90
     4095
280
     0
281
     0
  0
CLASS
  1
MLEADERSTYLE
  2
AcDbMLeaderStyle
  3
ACDB_MLEADERSTYLE_CLASS
 90
     4095
280
     0
281
     0
  0
CLASS
  1
SUN
  2
AcDbSun
  3
SCENEOE
 90
     1153
280
     0
281
     0
  0
CLASS
  1
ACDBPLACEHOLDER
  2
AcDbPlaceHolder
  3
ObjectDBX Classes
 90
        0
280
     0
281
     0
  0
CLASS
  1
LAYOUT
  2
AcDbLayout
  3
ObjectDBX Classes
 90
        0
280
     0
281
     0
  0
ENDSEC
  0
SECTION
  2
TABLES
  0
TABLE
  2
VPORT
  5
8
330
0
100
AcDbSymbolTable
 70
     1
  0
VPORT
  5
29
330
8
100
AcDbSymbolTableRecord
100
AcDbViewportTableRecord
  2
*Active
 70
     0
 10
0.0
 20
0.0
 11
1.0
 21
1.0
 12
139.7
 22
107.95
 13
0.0
 23
0.0
 14
10.0
 24
10.0
 15
10.0
 25
10.0
 16
0.0
 26
0.0
 36
1.0
 17
0.0
 27
0.0
 37
0.0
 40
215.9
 41
1.2941176471
 42
50.0
 43
0.0
 44
0.0
 50
0.0
 51
0.0
 71
     0
 72
  2000
 73
     1
 74
     3
 75
     0
 76
     0
 77
     0
 78
     0
281
     0
 65
     1
110
0.0
120
0.0
130
0.0
111
1.0
121
0.0
131
0.0
112
0.0
122
1.0
132
0.0
 79
     0
146
0.0
  0
ENDTAB
  0
TABLE
  2
LTYPE
  5
5
330
0
100
AcDbSymbolTable
 70
     6
  0
LTYPE
  5
14
330
5
100
AcDbSymbolTableRecord
100
AcDbLinetypeTableRecord
  2
ByBlock
 70
     0
  3

 72
    65
 73
     0
 40
0.0
  0
LTYPE
  5
15
330
5
100
AcDbSymbolTableRecord
100
AcDbLinetypeTableRecord
  2
ByLayer
 70
     0
  3

 72
    65
 73
     0
 40
0.0
  0
LTYPE
  5
16
330
5
100
AcDbSymbolTableRecord
100
AcDbLinetypeTableRecord
  2
Continuous
 70
     0
  3
Solid line
 72
    65
 73
     0
 40
0.0
  0
LTYPE
  5
6E
330
5
100
AcDbSymbolTableRecord
100
AcDbLinetypeTableRecord
  2
HIDDEN
 70
     0
  3
Hidden __ __ __ __ __ __ __ __ __ __ __ __ __ __
 72
    65
 73
     2
 40
1.905
 49
1.27
 74
     0
 49
-0.635
 74
     0
  0
LTYPE
  5
6F
330
5
100
AcDbSymbolTableRecord
100
AcDbLinetypeTableRecord
  2
PHANTOM
 70
     0
  3
Phantom ______  __  __  ______  __  __  ______
 72
    65
 73
     6
 40
12.7
 49
6.35
 74
     0
 49
-1.27
 74
     0
 49
1.27
 74
     0
 49
-1.27
 74
     0
 49
1.27
 74
     0
 49
-1.27
 74
     0
  0
LTYPE
  5
70
330
5
100
AcDbSymbolTableRecord
100
AcDbLinetypeTableRecord
  2
CENTER
 70
     0
  3
Center ____ _ ____ _ ____ _ ____ _ ____ _ ____
 72
    65
 73
     4
 40
10.16
 49
6.35
 74
     0
 49
-1.27
 74
     0
 49
1.27
 74
     0
 49
-1.27
 74
     0
  0
LTYPE
  5
71
330
5
100
AcDbSymbolTableRecord
100
AcDbLinetypeTableRecord
  2
CENTERX2
 70
     0
  3
Center (2x) ________  __  ________  __  _____
 72
    65
 73
     4
 40
20.32
 49
12.7
 74
     0
 49
-2.54
 74
     0
 49
2.54
 74
     0
 49
-2.54
 74
     0
  0
LTYPE
  5
72
330
5
100
AcDbSymbolTableRecord
100
AcDbLinetypeTableRecord
  2
DOT2
 70
     0
  3
Dot (.5x) ........................................
 72
    65
 73
     2
 40
0.635
 49
0.0
 74
     0
 49
-0.635
 74
     0
  0
ENDTAB
  0
TABLE
  2
LAYER
  5
2
330
0
100
AcDbSymbolTable
 70
    17
  0
LAYER
  5
10
330
2
100
AcDbSymbolTableRecord
100
AcDbLayerTableRecord
  2
0
 70
     0
 62
     7
  6
Continuous
370
    -3
390
F
  0
LAYER
  5
73
330
2
100
AcDbSymbolTableRecord
100
AcDbLayerTableRecord
  2
FORMAT
 70
     0
 62
     7
  6
Continuous
370
    -3
390
F
  0
LAYER
  5
74
330
2
100
AcDbSymbolTableRecord
100
AcDbLayerTableRecord
  2
YARDIMCI_GEOMETRI
 70
     0
 62
    -6
  6
Continuous
290
     0
370
    -3
390
F
  0
LAYER
  5
75
330
2
100
AcDbSymbolTableRecord
100
AcDbLayerTableRecord
  2
SAYFA_CERCEVESI
 70
     0
 62
     7
  6
Continuous
370
    25
390
F
  0
LAYER
  5
76
330
2
100
AcDbSymbolTableRecord
100
AcDbLayerTableRecord
  2
ANTET
 70
     0
 62
     7
  6
Continuous
370
    -3
390
F
  0
LAYER
  5
77
330
2
100
AcDbSymbolTableRecord
100
AcDbLayerTableRecord
  2
OLCU
 70
     0
 62
   150
  6
Continuous
370
    -3
390
F
  0
LAYER
  5
78
330
2
100
AcDbSymbolTableRecord
100
AcDbLayerTableRecord
  2
METIN
 70
     0
 62
    96
  6
Continuous
370
    -3
390
F
  0
LAYER
  5
79
330
2
100
AcDbSymbolTableRecord
100
AcDbLayerTableRecord
  2
BALON
 70
     0
 62
     5
  6
Continuous
370
    -3
390
F
  0
LAYER
  5
7A
330
2
100
AcDbSymbolTableRecord
100
AcDbLayerTableRecord
  2
VURGU
 70
     0
 62
     7
  6
Continuous
370
    -3
390
F
  0
LAYER
  5
7B
330
2
100
AcDbSymbolTableRecord
100
AcDbLayerTableRecord
  2
SILIK
 70
     0
 62
     7
  6
Continuous
370
    -3
390
F
  0
LAYER
  5
7C
330
2
100
AcDbSymbolTableRecord
100
AcDbLayerTableRecord
  2
MODEL
 70
     0
 62
     7
  6
Continuous
370
    -3
390
F
  0
LAYER
  5
7D
330
2
100
AcDbSymbolTableRecord
100
AcDbLayerTableRecord
  2
DETAYLANDıRMA
 70
     0
 62
   190
  6
Continuous
370
    -3
390
F
  0
LAYER
  5
7E
330
2
100
AcDbSymbolTableRecord
100
AcDbLayerTableRecord
  2
TOLERANS
 70
     0
 62
   230
  6
Continuous
370
    -3
390
F
  0
LAYER
  5
7F
330
2
100
AcDbSymbolTableRecord
100
AcDbLayerTableRecord
  2
MERKEZ_CIZGILERI
 70
     0
 62
    30
  6
Continuous
370
    -3
390
F
  0
LAYER
  5
80
330
2
100
AcDbSymbolTableRecord
100
AcDbLayerTableRecord
  2
KESIT-DETAY_CIZGILERI
 70
     0
 62
     7
  6
Continuous
370
    -3
390
F
  0
LAYER
  5
81
330
2
100
AcDbSymbolTableRecord
100
AcDbLayerTableRecord
  2
\U+041E\U+0421\U+0415\U+0412\U+042B\U+0415
 70
     0
 62
     7
  6
Continuous
370
    -3
390
F
  0
LAYER
  5
82
330
2
100
AcDbSymbolTableRecord
100
AcDbLayerTableRecord
  2
\U+0412\U+041E\U+0414\U+042F\U+041D\U+042B\U+0415_\U+0417\U+041D\U+0410\U+041A\U+0418
 70
     0
 62
    11
  6
Continuous
370
    -3
390
F
  0
ENDTAB
  0
TABLE
  2
STYLE
  5
3
330
0
100
AcDbSymbolTable
 70
     1
  0
STYLE
  5
11
330
3
100
AcDbSymbolTableRecord
100
AcDbTextStyleTableRecord
  2
Standard
 70
     0
 40
0.0
 41
1.0
 50
0.0
 71
     0
 42
3.5
  3
txt
  4

  0
ENDTAB
  0
TABLE
  2
VIEW
  5
6
330
0
100
AcDbSymbolTable
 70
     0
  0
ENDTAB
  0
TABLE
  2
UCS
  5
7
330
0
100
AcDbSymbolTable
 70
     0
  0
ENDTAB
  0
TABLE
  2
APPID
  5
9
330
0
100
AcDbSymbolTable
 70
     1
  0
APPID
  5
12
330
9
100
AcDbSymbolTableRecord
100
AcDbRegAppTableRecord
  2
ACAD
 70
     0
  0
ENDTAB
  0
TABLE
  2
DIMSTYLE
  5
A
330
0
100
AcDbSymbolTable
 70
     1
100
AcDbDimStyleTable
  0
DIMSTYLE
105
27
330
A
100
AcDbSymbolTableRecord
100
AcDbDimStyleTableRecord
  2
ISO-25
 70
     0
 41
2.5
 42
0.625
 43
3.75
 44
1.25
 73
     0
 74
     0
 77
     1
 78
     8
140
2.5
141
2.5
143
0.0393700787
147
0.625
171
     3
172
     1
178
     0
271
     2
272
     2
274
     3
278
    44
283
     0
284
     8
340
11
  0
ENDTAB
  0
TABLE
  2
BLOCK_RECORD
  5
1
330
0
100
AcDbSymbolTable
 70
     3
  0
BLOCK_RECORD
  5
1F
330
1
100
AcDbSymbolTableRecord
100
AcDbBlockTableRecord
  2
*Model_Space
340
22
  0
BLOCK_RECORD
  5
1B
330
1
100
AcDbSymbolTableRecord
100
AcDbBlockTableRecord
  2
*Paper_Space
340
1E
  0
BLOCK_RECORD
  5
23
330
1
100
AcDbSymbolTableRecord
100
AcDbBlockTableRecord
  2
*Paper_Space0
340
26
  0
BLOCK_RECORD
  5
B1
330
1
100
AcDbSymbolTableRecord
100
AcDbBlockTableRecord
  2
SW_CENTERMARKSYMBOL_0
340
0
102
{BLKREFS
331
BC
102
}
  0
BLOCK_RECORD
  5
C7
330
1
100
AcDbSymbolTableRecord
100
AcDbBlockTableRecord
  2
SW_CENTERMARKSYMBOL_1
340
0
102
{BLKREFS
331
D2
102
}
  0
ENDTAB
  0
ENDSEC
  0
SECTION
  2
BLOCKS
  0
BLOCK
  5
20
330
1F
100
AcDbEntity
  8
0
100
AcDbBlockBegin
  2
*Model_Space
 70
     0
 10
0.0
 20
0.0
 30
0.0
  3
*Model_Space
  1

  0
ENDBLK
  5
21
330
1F
100
AcDbEntity
  8
0
100
AcDbBlockEnd
  0
BLOCK
  5
1C
330
1B
100
AcDbEntity
 67
     1
  8
0
100
AcDbBlockBegin
  2
*Paper_Space
 70
     0
 10
0.0
 20
0.0
 30
0.0
  3
*Paper_Space
  1

  0
ENDBLK
  5
1D
330
1B
100
AcDbEntity
 67
     1
  8
0
100
AcDbBlockEnd
  0
BLOCK
  5
24
330
23
100
AcDbEntity
  8
0
100
AcDbBlockBegin
  2
*Paper_Space0
 70
     0
 10
0.0
 20
0.0
 30
0.0
  3
*Paper_Space0
  1

  0
ENDBLK
  5
25
330
23
100
AcDbEntity
  8
0
100
AcDbBlockEnd
  0
BLOCK
  5
B2
330
B1
100
AcDbEntity
  8
0
100
AcDbBlockBegin
  2
SW_CENTERMARKSYMBOL_0
 70
     0
 10
0.0
 20
0.0
 30
0.0
  3
SW_CENTERMARKSYMBOL_0
  1

  0
LINE
  5
B4
330
B1
100
AcDbEntity
  8
FORMAT
 62
     0
100
AcDbLine
 10
0.0
 20
0.0
 30
0.0
 11
0.0
 21
2.5
 31
0.0
  0
LINE
  5
B5
330
B1
100
AcDbEntity
  8
FORMAT
 62
     0
100
AcDbLine
 10
0.0
 20
0.0
 30
0.0
 11
-2.5
 21
0.0
 31
0.0
  0
LINE
  5
B6
330
B1
100
AcDbEntity
  8
FORMAT
 62
     0
100
AcDbLine
 10
0.0
 20
0.0
 30
0.0
 11
0.0
 21
-2.5
 31
0.0
  0
LINE
  5
B7
330
B1
100
AcDbEntity
  8
FORMAT
 62
     0
100
AcDbLine
 10
0.0
 20
0.0
 30
0.0
 11
2.5
 21
0.0
 31
0.0
  0
LINE
  5
B8
330
B1
100
AcDbEntity
  8
FORMAT
 62
     0
100
AcDbLine
 10
0.0
 20
5.0
 30
0.0
 11
0.0
 21
127.5
 31
0.0
  0
LINE
  5
B9
330
B1
100
AcDbEntity
  8
FORMAT
 62
     0
100
AcDbLine
 10
-5.0
 20
0.0
 30
0.0
 11
-127.5
 21
0.0
 31
0.0
  0
LINE
  5
BA
330
B1
100
AcDbEntity
  8
FORMAT
 62
     0
100
AcDbLine
 10
0.0
 20
-5.0
 30
0.0
 11
0.0
 21
-127.5
 31
0.0
  0
LINE
  5
BB
330
B1
100
AcDbEntity
  8
FORMAT
 62
     0
100
AcDbLine
 10
5.0
 20
0.0
 30
0.0
 11
127.5
 21
0.0
 31
0.0
  0
ENDBLK
  5
B3
330
B1
100
AcDbEntity
  8
0
100
AcDbBlockEnd
  0
BLOCK
  5
C8
330
C7
100
AcDbEntity
  8
0
100
AcDbBlockBegin
  2
SW_CENTERMARKSYMBOL_1
 70
     0
 10
0.0
 20
0.0
 30
0.0
  3
SW_CENTERMARKSYMBOL_1
  1

  0
LINE
  5
CA
330
C7
100
AcDbEntity
  8
FORMAT
 62
     0
100
AcDbLine
 10
0.0
 20
0.0
 30
0.0
 11
0.0
 21
2.5
 31
0.0
  0
LINE
  5
CB
330
C7
100
AcDbEntity
  8
FORMAT
 62
     0
100
AcDbLine
 10
0.0
 20
0.0
 30
0.0
 11
-2.5
 21
0.0
 31
0.0
  0
LINE
  5
CC
330
C7
100
AcDbEntity
  8
FORMAT
 62
     0
100
AcDbLine
 10
0.0
 20
0.0
 30
0.0
 11
0.0
 21
-2.5
 31
0.0
  0
LINE
  5
CD
330
C7
100
AcDbEntity
  8
FORMAT
 62
     0
100
AcDbLine
 10
0.0
 20
0.0
 30
0.0
 11
2.5
 21
0.0
 31
0.0
  0
LINE
  5
CE
330
C7
100
AcDbEntity
  8
FORMAT
 62
     0
100
AcDbLine
 10
0.0
 20
5.0
 30
0.0
 11
0.0
 21
127.5
 31
0.0
  0
LINE
  5
CF
330
C7
100
AcDbEntity
  8
FORMAT
 62
     0
100
AcDbLine
 10
-5.0
 20
0.0
 30
0.0
 11
-127.5
 21
0.0
 31
0.0
  0
LINE
  5
D0
330
C7
100
AcDbEntity
  8
FORMAT
 62
     0
100
AcDbLine
 10
0.0
 20
-5.0
 30
0.0
 11
0.0
 21
-127.5
 31
0.0
  0
LINE
  5
D1
330
C7
100
AcDbEntity
  8
FORMAT
 62
     0
100
AcDbLine
 10
5.0
 20
0.0
 30
0.0
 11
127.5
 21
0.0
 31
0.0
  0
ENDBLK
  5
C9
330
C7
100
AcDbEntity
  8
0
100
AcDbBlockEnd
  0
ENDSEC
  0
SECTION
  2
ENTITIES
  0
LINE
  5
83
330
1F
100
AcDbEntity
  8
0
  6
Continuous
 62
     7
370
    25
100
AcDbLine
 10
-19.0383843962
 20
84.5893244705
 30
0.0
 11
-19.0383843962
 21
-76.6339827814
 31
0.0
  0
LINE
  5
84
330
1F
100
AcDbEntity
  8
0
  6
Continuous
 62
     7
370
    25
100
AcDbLine
 10
230.9616156038
 20
-76.6339827814
 30
0.0
 11
230.9616156038
 21
84.5893244705
 31
0.0
  0
ARC
  5
85
330
1F
100
AcDbEntity
  8
0
  6
Continuous
 62
     7
370
    25
100
AcDbCircle
 10
230.9616156038
 20
84.5893219219
 30
0.0
 40
250.0
100
AcDbArc
 50
135.0
 51
180.0
  0
LINE
  5
86
330
1F
100
AcDbEntity
  8
0
  6
Continuous
 62
     7
370
    25
100
AcDbLine
 10
172.5732706603
 20
379.75437152
 30
0.0
 11
54.1849196073
 21
261.3660167417
 31
0.0
  0
LINE
  5
87
330
1F
100
AcDbEntity
  8
0
  6
Continuous
 62
     7
370
    25
100
AcDbLine
 10
230.9616156038
 20
84.5893244705
 30
0.0
 11
349.3499703821
 21
202.9776643476
 31
0.0
  0
LINE
  5
88
330
1F
100
AcDbEntity
  8
0
  6
Continuous
 62
     7
370
    25
100
AcDbLine
 10
105.9616156038
 20
-76.6339827814
 30
0.0
 11
230.9616156038
 21
-76.6339827814
 31
0.0
  0
LINE
  5
89
330
1F
100
AcDbEntity
  8
0
  6
Continuous
 62
     7
370
    25
100
AcDbLine
 10
-19.0383843962
 20
-76.6339827814
 30
0.0
 11
105.9616156038
 21
-76.6339827814
 31
0.0
  0
LWPOLYLINE
  5
8A
330
1F
100
AcDbEntity
  8
0
  6
Continuous
 62
     7
370
    25
100
AcDbPolyline
 90
       31
 70
   128
 43
0.0
 10
260.9616167959
 20
291.3660179338
 10
265.665838879
 20
286.6618107519
 10
270.3567244228
 20
281.9709252081
 10
275.0209815916
 20
277.3066531381
 10
279.6453781542
 20
272.6822565756
 10
284.2168159899
 20
268.1108187399
 10
288.7223310885
 20
263.6053036413
 10
293.1491680559
 20
259.1784666738
 10
297.4847652134
 20
254.8428844175
 10
301.7168142018
 20
250.6108056269
 10
305.8333642897
 20
246.4942704401
 10
309.8227031645
 20
242.5049315653
 10
313.673535746
 20
238.6540840826
 10
317.3749692854
 20
234.9526654444
 10
320.9164835629
 20
231.4111660681
 10
324.2880500969
 20
228.039599534
 10
327.480102342
 20
224.8475323877
 10
330.4836101946
 20
221.8440245352
 10
333.2900501904
 20
219.0375994406
 10
335.8914651093
 20
216.4361845217
 10
338.2804788765
 20
214.0471409521
 10
340.4503263649
 20
211.8772934637
 10
342.3948533949
 20
209.9327813349
 10
344.108561438
 20
208.2190881929
 10
345.5865629133
 20
206.7410718164
 10
346.8247003969
 20
205.5029343328
 10
347.8194423136
 20
204.5081924162
 10
348.5679723438
 20
203.7596474848
 10
349.0681745228
 20
203.2594453058
 10
349.3186332401
 20
203.0089865885
 10
349.3499703821
 20
202.9776643476
  0
LWPOLYLINE
  5
8B
330
1F
100
AcDbEntity
  8
0
  6
Continuous
 62
     7
370
    25
100
AcDbPolyline
 90
       31
 70
   128
 43
0.0
 10
172.5732706603
 20
379.75437152
 10
172.6045929011
 20
379.7230492792
 10
172.8550516185
 20
379.4725905619
 10
173.3552537974
 20
378.9723883829
 10
174.1037912783
 20
378.2238434515
 10
175.0985331949
 20
377.2291015348
 10
176.336663228
 20
375.9909640512
 10
177.8146721539
 20
374.5129476747
 10
179.5283727464
 20
372.7992545328
 10
181.4728997764
 20
370.854742404
 10
183.6427547154
 20
368.6848949156
 10
186.0317684826
 20
366.295851346
 10
188.6331834015
 20
363.6944364271
 10
191.4396233973
 20
360.8880113325
 10
194.4431312498
 20
357.8845034799
 10
197.6351909455
 20
354.6924363336
 10
201.006750029
 20
351.3208697996
 10
204.5482643065
 20
347.7793704233
 10
208.2496903953
 20
344.0779517851
 10
212.1005304274
 20
340.2271043024
 10
216.0898767528
 20
336.2377654276
 10
220.2064119395
 20
332.1212302408
 10
224.438475829
 20
327.8891514501
 10
228.7740655359
 20
323.5535691938
 10
233.2008876022
 20
319.1267322264
 10
237.706417602
 20
314.6212171278
 10
242.2778554377
 20
310.0497792921
 10
246.9022520003
 20
305.4253827295
 10
251.566509169
 20
300.7611106596
 10
256.2573947128
 20
296.0702251158
 10
260.9616167959
 20
291.3660179338
  0
LINE
  5
8C
330
1F
100
AcDbEntity
  8
0
  6
Continuous
 62
     1
370
    25
100
AcDbLine
 10
-19.0383843962
 20
84.5893244705
 30
0.0
 11
230.9616156038
 21
84.5893244705
 31
0.0
  0
LWPOLYLINE
  5
8D
330
1F
100
AcDbEntity
  8
0
  6
Continuous
 62
     1
370
    25
100
AcDbPolyline
 90
       61
 70
   128
 43
0.0
 10
54.1849196073
 20
261.3660167417
 10
54.3101936695
 20
261.2407575807
 10
54.6856582281
 20
260.865278121
 10
55.3102478501
 20
260.2406810484
 10
56.1821967479
 20
259.3687545023
 10
57.2990313288
 20
258.2519124708
 10
58.6575813707
 20
256.8933438024
 10
60.2540023741
 20
255.2969227991
 10
62.0837643859
 20
253.4671794138
 10
64.1416855272
 20
251.4092396459
 10
66.4219245431
 20
249.1290043554
 10
68.9180292305
 20
246.6329108438
 10
71.6229140875
 20
243.9280222616
 10
74.5289124664
 20
241.0220276079
 10
77.6277952012
 20
237.9231523237
 10
80.9107706067
 20
234.6401582918
 10
84.3685347703
 20
231.1824034414
 10
87.9912883159
 20
227.5596629343
 10
91.7687587556
 20
223.7821887693
 10
95.6902405363
 20
219.8607097826
 10
99.7446173918
 20
215.806312438
 10
103.9203965687
 20
211.6305302343
 10
108.2057416555
 20
207.3451946936
 10
112.5885051791
 20
202.9624353609
 10
117.0562639949
 20
198.4946798048
 10
121.5963535127
 20
193.9545940122
 10
126.1959042516
 20
189.3550227842
 10
130.8418776956
 20
184.7090493402
 10
135.5211068061
 20
180.0298463068
 10
140.2203239617
 20
175.3306161127
 10
144.9262112495
 20
170.6247250996
 10
149.6254302677
 20
165.9255098066
 10
154.3046593782
 20
161.2462769708
 10
158.9506328222
 20
156.6003035269
 10
163.5501816985
 20
152.0007621012
 10
168.0902712163
 20
147.4606614075
 10
172.558034223
 20
142.9929058514
 10
176.9407935557
 20
138.6101465187
 10
181.226136547
 20
134.3247960768
 10
185.4019187507
 20
130.1490138731
 10
189.4562937435
 20
126.0946463308
 10
193.3777801808
 20
122.1731673441
 10
197.1552468952
 20
118.3956931791
 10
200.7780023035
 20
114.7729377708
 10
204.2357646045
 20
111.3151680193
 10
207.5187437352
 20
108.0322037897
 10
210.6176190194
 20
104.9333136043
 10
213.5236211237
 20
102.0273189506
 10
216.2285097059
 20
99.3224303684
 10
218.7246106681
 20
96.8263219557
 10
221.0048534092
 20
94.5460866651
 10
223.0627708253
 20
92.4881617985
 10
224.8925365624
 20
90.658403512
 10
226.4889501151
 20
89.0619825086
 10
227.8475038823
 20
87.7034287414
 10
228.9643384632
 20
86.5866016111
 10
229.8362873611
 20
85.7146452627
 10
230.4608769831
 20
85.0900630913
 10
230.8363415417
 20
84.7145985327
 10
230.9616156038
 20
84.5893244705
 10
230.9616156038
 20
84.5893244705
  0
LINE
  5
8E
330
1F
100
AcDbEntity
  8
0
  6
Continuous
 62
     7
370
    25
100
AcDbLine
 10
-423.0829442922
 20
291.3660179338
 30
0.0
 11
-423.0829442922
 21
172.9776631555
 31
0.0
  0
LINE
  5
8F
330
1F
100
AcDbEntity
  8
0
  6
Continuous
 62
     7
370
    25
100
AcDbLine
 10
-173.0829442922
 20
172.9776631555
 30
0.0
 11
-173.0829442922
 21
291.3660179338
 31
0.0
  0
LINE
  5
90
330
1F
100
AcDbEntity
  8
0
  6
Continuous
 62
     7
370
    25
100
AcDbLine
 10
-423.0829442922
 20
172.9776631555
 30
0.0
 11
-423.0829442922
 21
84.5893244705
 31
0.0
  0
LINE
  5
91
330
1F
100
AcDbEntity
  8
0
  6
Continuous
 62
     7
370
    25
100
AcDbLine
 10
-173.0829442922
 20
84.5893244705
 30
0.0
 11
-173.0829442922
 21
172.9776631555
 31
0.0
  0
LINE
  5
92
330
1F
100
AcDbEntity
  8
0
  6
Continuous
 62
     7
370
    25
100
AcDbLine
 10
-423.0829442922
 20
84.5893244705
 30
0.0
 11
-423.0829442922
 21
-76.6339827814
 31
0.0
  0
LINE
  5
93
330
1F
100
AcDbEntity
  8
0
  6
Continuous
 62
     7
370
    25
100
AcDbLine
 10
-173.0829442922
 20
-76.6339827814
 30
0.0
 11
-173.0829442922
 21
84.5893244705
 31
0.0
  0
LWPOLYLINE
  5
94
330
1F
100
AcDbEntity
  8
0
  6
Continuous
 62
     7
370
    25
100
AcDbPolyline
 90
      119
 70
   128
 43
0.0
 10
-423.0829442922
 20
291.3660179338
 10
-422.9057843867
 20
286.6618107519
 10
-422.3747964088
 20
281.9709252081
 10
-421.4914853755
 20
277.3066531381
 10
-420.2583695832
 20
272.6822565756
 10
-418.6789284531
 20
268.1108187399
 10
-416.7576472345
 20
263.6053036413
 10
-414.4999648515
 20
259.1784666738
 10
-411.9122888032
 20
254.8428844175
 10
-409.001950461
 20
250.6108056269
 10
-405.7772050682
 20
246.4942704401
 10
-402.2471870366
 20
242.5049315653
 10
-398.421902496
 20
238.6540840826
 10
-394.312192041
 20
234.9526654444
 10
-389.9297158304
 20
231.4111660681
 10
-385.2868865315
 20
228.039599534
 10
-380.39686932
 20
224.8475323877
 10
-375.273522276
 20
221.8440245352
 10
-369.9313740316
 20
219.0375994406
 10
-364.3855567161
 20
216.4361845217
 10
-358.6518022302
 20
214.0471409521
 10
-352.7463602904
 20
211.8772934637
 10
-346.6859649006
 20
209.9327813349
 10
-340.487800825
 20
208.2190881929
 10
-334.1694365326
 20
206.7410718164
 10
-327.7487813566
 20
205.5029343328
 10
-321.2440352026
 20
204.5081924162
 10
-314.6736345324
 20
203.7596474848
 10
-308.0562076602
 20
203.2594453058
 10
-301.4105095599
 20
203.0089865885
 10
-294.7553790245
 20
203.0089865885
 10
-288.1096809242
 20
203.2594453058
 10
-281.4922540519
 20
203.7596474848
 10
-274.9218533817
 20
204.5081924162
 10
-268.4171072278
 20
205.5029343328
 10
-261.9964520517
 20
206.7410718164
 10
-255.6780877594
 20
208.2190881929
 10
-249.4799236837
 20
209.9327813349
 10
-243.419528294
 20
211.8772934637
 10
-237.5140863541
 20
214.0471409521
 10
-231.7803318683
 20
216.4361845217
 10
-226.2345145527
 20
219.0375994406
 10
-220.8923663083
 20
221.8440245352
 10
-215.7690192643
 20
224.8475323877
 10
-210.8790020529
 20
228.039599534
 10
-206.2361727539
 20
231.4111660681
 10
-201.8536965433
 20
234.9526654444
 10
-197.7439860884
 20
238.6540840826
 10
-193.9187015477
 20
242.5049315653
 10
-190.3886835161
 20
246.4942704401
 10
-187.1639381233
 20
250.6108056269
 10
-184.2535997811
 20
254.8428844175
 10
-181.6659237329
 20
259.1784666738
 10
-179.4082413498
 20
263.6053036413
 10
-177.4869601313
 20
268.1108187399
 10
-175.9075190011
 20
272.6822565756
 10
-174.6744032088
 20
277.3066531381
 10
-173.7910921756
 20
281.9709252081
 10
-173.2601041976
 20
286.6618107519
 10
-173.0829442922
 20
291.3660179338
 10
-173.2601041976
 20
296.0702251158
 10
-173.7910921756
 20
300.7611106596
 10
-174.6744032088
 20
305.4253827295
 10
-175.9075190011
 20
310.0497792921
 10
-177.4869601313
 20
314.6212171278
 10
-179.4082413498
 20
319.1267322264
 10
-181.6659237329
 20
323.5535691938
 10
-184.2535997811
 20
327.8891514501
 10
-187.1639381233
 20
332.1212302408
 10
-190.3886835161
 20
336.2377654276
 10
-193.9187015477
 20
340.2271043024
 10
-197.7439860884
 20
344.0779517851
 10
-201.8536965433
 20
347.7793704233
 10
-206.2361727539
 20
351.3208697996
 10
-210.8790020529
 20
354.6924363336
 10
-215.7690192643
 20
357.8845034799
 10
-220.8923663083
 20
360.8880113325
 10
-226.2345145527
 20
363.6944364271
 10
-231.7803318683
 20
366.295851346
 10
-237.5140863541
 20
368.6848949156
 10
-243.419528294
 20
370.854742404
 10
-249.4799236837
 20
372.7992545328
 10
-255.6780877594
 20
374.5129476747
 10
-261.9964520517
 20
375.9909640512
 10
-268.4171072278
 20
377.2291015348
 10
-274.9218533817
 20
378.2238434515
 10
-281.4922540519
 20
378.9723883829
 10
-288.1096809242
 20
379.4725905619
 10
-294.7553790245
 20
379.7230492792
 10
-301.4105095599
 20
379.7230492792
 10
-308.0562076602
 20
379.4725905619
 10
-314.6736345324
 20
378.9723883829
 10
-321.2440352026
 20
378.2238434515
 10
-327.7487813566
 20
377.2291015348
 10
-334.1694365326
 20
375.9909640512
 10
-340.487800825
 20
374.5129476747
 10
-346.6859649006
 20
372.7992545328
 10
-352.7463602904
 20
370.854742404
 10
-358.6518022302
 20
368.6848949156
 10
-364.3855567161
 20
366.295851346
 10
-369.9313740316
 20
363.6944364271
 10
-375.273522276
 20
360.8880113325
 10
-380.39686932
 20
357.8845034799
 10
-385.2868865315
 20
354.6924363336
 10
-389.9297158304
 20
351.3208697996
 10
-394.312192041
 20
347.7793704233
 10
-398.421902496
 20
344.0779517851
 10
-402.2471870366
 20
340.2271043024
 10
-405.7772050682
 20
336.2377654276
 10
-409.001950461
 20
332.1212302408
 10
-411.9122888032
 20
327.8891514501
 10
-414.4999648515
 20
323.5535691938
 10
-416.7576472345
 20
319.1267322264
 10
-418.6789284531
 20
314.6212171278
 10
-420.2583695832
 20
310.0497792921
 10
-421.4914853755
 20
305.4253827295
 10
-422.3747964088
 20
300.7611106596
 10
-422.9057843867
 20
296.0702251158
 10
-423.0829442922
 20
291.3660179338
  0
LWPOLYLINE
  5
95
330
1F
100
AcDbEntity
  8
0
  6
Continuous
 62
     7
370
    25
100
AcDbPolyline
 90
      108
 70
   128
 43
0.0
 10
-400.3829474631
 20
291.3660179338
 10
-400.2066220227
 20
295.6112991533
 10
-399.6782566491
 20
299.8419474325
 10
-398.799669284
 20
304.0433894358
 10
-397.5738923136
 20
308.2011114321
 10
-396.0051427666
 20
312.300838109
 10
-394.0988446656
 20
316.3283537588
 10
-391.8615545217
 20
320.2698301039
 10
-389.3009911362
 20
324.1116772852
 10
-386.4259834472
 20
327.8406630716
 10
-383.2464332763
 20
331.4438830576
 10
-379.7733153287
 20
334.908939477
 10
-376.0185877863
 20
338.2239114008
 10
-371.9951997582
 20
341.3773547373
 10
-367.7170242253
 20
344.3583916387
 10
-363.1987984363
 20
347.1567701063
 10
-358.4561127308
 20
349.7628043852
 10
-353.5053062323
 20
352.1675537786
 10
-348.3634444955
 20
354.3627034387
 10
-343.0482561771
 20
356.3406537733
 10
-337.5780659798
 20
358.0946694574
 10
-331.9717238728
 20
359.618641015
 10
-326.2485641125
 20
360.9073232374
 10
-320.4283102486
 20
361.9563053808
 10
-314.5310266945
 20
362.7619217596
 10
-308.5770432908
 20
363.3214305601
 10
-302.5868840586
 20
363.6328946314
 10
-296.5811994463
 20
363.6952410898
 10
-290.5806915905
 20
363.5082613191
 10
-284.6060453985
 20
363.0725811682
 10
-278.6778568361
 20
362.3897205553
 10
-272.8165614489
 20
361.462033864
 10
-267.0423652116
 20
360.2926801405
 10
-261.3751742128
 20
358.8857423029
 10
-255.8345201496
 20
357.2460483274
 10
-250.4395025853
 20
355.3792606554
 10
-245.2087256197
 20
353.2918165884
 10
-240.1602159325
 20
350.9908686838
 10
-235.31137808
 20
348.484403964
 10
-230.6789274398
 20
345.7810353002
 10
-226.2788306061
 20
342.8900908193
 10
-222.126256961
 20
339.821524497
 10
-218.2355265204
 20
336.5859161577
 10
-214.6200428787
 20
333.1944416723
 10
-211.2922708574
 20
329.6587537489
 10
-208.2636918012
 20
325.9911011419
 10
-205.5447290722
 20
322.2040604315
 10
-203.1447704021
 20
318.3107148371
 10
-201.0720784846
 20
314.3244754038
 10
-199.3338133279
 20
310.2591108045
 10
-197.9359502975
 20
306.1286281309
 10
-196.883309919
 20
301.9472430906
 10
-196.1795355264
 20
297.7293800077
 10
-195.8270336572
 20
293.4895824156
 10
-195.8270336572
 20
289.2424534521
 10
-196.1795355264
 20
285.0026558599
 10
-196.883309919
 20
280.784792777
 10
-197.9359502975
 20
276.6034077368
 10
-199.3338133279
 20
272.4729250631
 10
-201.0720784846
 20
268.4075604639
 10
-203.1447704021
 20
264.4213210306
 10
-205.5447290722
 20
260.5279754362
 10
-208.2636918012
 20
256.7409347257
 10
-211.2922708574
 20
253.0732821188
 10
-214.6200428787
 20
249.5375941954
 10
-218.2355265204
 20
246.14611971
 10
-222.126256961
 20
242.9105113706
 10
-226.2788306061
 20
239.8419450483
 10
-230.6789274398
 20
236.9510005674
 10
-235.31137808
 20
234.2476319036
 10
-240.1602159325
 20
231.7411671839
 10
-245.2087256197
 20
229.4402192793
 10
-250.4395025853
 20
227.3527752123
 10
-255.8345201496
 20
225.4859875402
 10
-261.3751742128
 20
223.8462935648
 10
-267.0423652116
 20
222.4393557272
 10
-272.8165614489
 20
221.2700020037
 10
-278.6778568361
 20
220.3423153124
 10
-284.6060453985
 20
219.6594546995
 10
-290.5806915905
 20
219.2237745485
 10
-296.5811994463
 20
219.0367947779
 10
-302.5868840586
 20
219.0991412363
 10
-308.5770432908
 20
219.4106053076
 10
-314.5310266945
 20
219.9701141081
 10
-320.4283102486
 20
220.7757304869
 10
-326.2485641125
 20
221.8247126303
 10
-331.9717238728
 20
223.1133948526
 10
-337.5780659798
 20
224.6373664102
 10
-343.0482561771
 20
226.391352292
 10
-348.3634444955
 20
228.3693324289
 10
-353.5053062323
 20
230.564482089
 10
-358.4561127308
 20
232.9692314825
 10
-363.1987984363
 20
235.5752657614
 10
-367.7170242253
 20
238.3736442289
 10
-371.9951997582
 20
241.3546811304
 10
-376.0185877863
 20
244.5081244669
 10
-379.7733153287
 20
247.8230963907
 10
-383.2464332763
 20
251.2881528101
 10
-386.4259834472
 20
254.891372796
 10
-389.3009911362
 20
258.6203585825
 10
-391.8615545217
 20
262.4622057638
 10
-394.0988446656
 20
266.4036821089
 10
-396.0051427666
 20
270.4311977587
 10
-397.5738923136
 20
274.5308946333
 10
-398.799669284
 20
278.6886464319
 10
-399.6782566491
 20
282.8900884352
 10
-400.2066220227
 20
287.1207367143
 10
-400.3829474631
 20
291.3660179338
  0
LINE
  5
96
330
1F
100
AcDbEntity
  8
0
  6
Continuous
 62
     7
370
    25
100
AcDbLine
 10
-423.0829442922
 20
-76.6339827814
 30
0.0
 11
-173.0829442922
 21
-76.6339827814
 31
0.0
  0
LWPOLYLINE
  5
97
330
1F
100
AcDbEntity
  8
0
  6
Continuous
 62
     1
370
    25
100
AcDbPolyline
 90
       31
 70
   128
 43
0.0
 10
-298.0829442922
 20
84.5893244705
 10
-291.4301723312
 20
84.7145985327
 10
-284.7962587211
 20
85.0900630913
 10
-278.2000063989
 20
85.7146452627
 10
-271.6601158563
 20
86.5866016111
 10
-265.1951241377
 20
87.7034287414
 10
-258.8233540836
 20
89.0619825086
 10
-252.5628733519
 20
90.658403512
 10
-246.431421775
 20
92.4881617985
 10
-240.4463815573
 20
94.5460866651
 10
-234.624717671
 20
96.8263219557
 10
-228.9829368774
 20
99.3224303684
 10
-223.537024397
 20
102.0273189506
 10
-218.302417833
 20
104.9333136043
 10
-213.2939661923
 20
108.0322037897
 10
-208.5258553806
 20
111.3151680193
 10
-204.011600751
 20
114.7729377708
 10
-199.764002401
 20
118.3956931791
 10
-195.7951004687
 20
122.1731673441
 10
-192.1161378804
 20
126.0946463308
 10
-188.73756035
 20
130.1490138731
 10
-185.6689269725
 20
134.3247960768
 10
-182.9189474765
 20
138.6101465187
 10
-180.4954077188
 20
142.9929058514
 10
-178.4051920358
 20
147.4606614075
 10
-176.654208738
 20
152.0007621012
 10
-175.2474273625
 20
156.6003035269
 10
-174.1888414208
 20
161.2462769708
 10
-173.481446046
 20
165.9255098066
 10
-173.1272454444
 20
170.6247250996
 10
-173.0829442922
 20
172.9776631555
  0
LWPOLYLINE
  5
98
330
1F
100
AcDbEntity
  8
0
  6
Continuous
 62
     1
370
    25
100
AcDbPolyline
 90
       31
 70
   128
 43
0.0
 10
-423.0829442922
 20
172.9776631555
 10
-423.0386431399
 20
170.6247250996
 10
-422.6844425384
 20
165.9255098066
 10
-421.9770471636
 20
161.2462769708
 10
-420.9184612218
 20
156.6003035269
 10
-419.5116798464
 20
152.0007621012
 10
-417.7606965486
 20
147.4606614075
 10
-415.6704808656
 20
142.9929058514
 10
-413.2469411079
 20
138.6101465187
 10
-410.4969616119
 20
134.3247960768
 10
-407.4283282343
 20
130.1490138731
 10
-404.0497507039
 20
126.0946463308
 10
-400.3707881156
 20
122.1731673441
 10
-396.4018861834
 20
118.3956931791
 10
-392.1542878333
 20
114.7729377708
 10
-387.6400332037
 20
111.3151680193
 10
-382.871922392
 20
108.0322037897
 10
-377.8634707514
 20
104.9333136043
 10
-372.6288641873
 20
102.0273189506
 10
-367.182951707
 20
99.3224303684
 10
-361.5411709133
 20
96.8263219557
 10
-355.719507027
 20
94.5460866651
 10
-349.7344668094
 20
92.4881617985
 10
-343.6030152324
 20
90.658403512
 10
-337.3425345007
 20
89.0619825086
 10
-330.9707644466
 20
87.7034287414
 10
-324.5057727281
 20
86.5866016111
 10
-317.9658821854
 20
85.7146452627
 10
-311.3696298632
 20
85.0900630913
 10
-304.7357162531
 20
84.7145985327
 10
-298.0829442922
 20
84.5893244705
  0
LWPOLYLINE
  5
99
330
1F
100
AcDbEntity
  8
0
  6
Continuous
 62
     1
370
    25
100
AcDbPolyline
 90
       23
 70
   128
 43
0.0
 10
-356.8825165812
 20
232.1718405447
 10
-353.5053062323
 20
233.7791990003
 10
-348.3634444955
 20
235.9743486605
 10
-343.0482561771
 20
237.9523287973
 10
-337.5780659798
 20
239.7063146791
 10
-331.9717238728
 20
241.2302862367
 10
-326.2485641125
 20
242.5189684591
 10
-320.4283102486
 20
243.5679506025
 10
-314.5310266945
 20
244.3735669813
 10
-308.5770432908
 20
244.9330757818
 10
-302.5868840586
 20
245.2445398531
 10
-296.5811994463
 20
245.3068863115
 10
-290.5806915905
 20
245.1199065409
 10
-284.6060453985
 20
244.6842263899
 10
-278.6778568361
 20
244.001365777
 10
-272.8165614489
 20
243.0736790857
 10
-267.0423652116
 20
241.9043551645
 10
-261.3751742128
 20
240.4974173269
 10
-255.8345201496
 20
238.8577233515
 10
-250.4395025853
 20
236.9909058771
 10
-245.2087256197
 20
234.9034618101
 10
-240.1602159325
 20
232.6025139055
 10
-239.2833720032
 20
232.1718405447
  0
LINE
  5
9A
330
1F
100
AcDbEntity
  8
0
  6
Continuous
 62
     1
370
    25
100
AcDbLine
 10
-298.0829442922
 20
84.5893244705
 30
0.0
 11
-173.0829442922
 21
84.5893244705
 31
0.0
  0
LINE
  5
9B
330
1F
100
AcDbEntity
  8
0
  6
Continuous
 62
     1
370
    25
100
AcDbLine
 10
-423.0829442922
 20
84.5893244705
 30
0.0
 11
-298.0829442922
 21
84.5893244705
 31
0.0
  0
LINE
  5
9C
330
1F
100
AcDbEntity
  8
0
  6
Continuous
 62
     7
370
    25
100
AcDbLine
 10
544.7933673501
 20
84.5893244705
 30
0.0
 11
544.7933673501
 21
-76.6339827814
 31
0.0
  0
LINE
  5
9D
330
1F
100
AcDbEntity
  8
0
  6
Continuous
 62
     7
370
    25
100
AcDbLine
 10
794.7933673501
 20
-76.6339827814
 30
0.0
 11
794.7933673501
 21
84.5893244705
 31
0.0
  0
LINE
  5
9E
330
1F
100
AcDbEntity
  8
0
  6
Continuous
 62
     7
370
    25
100
AcDbLine
 10
794.7933673501
 20
84.5893244705
 30
0.0
 11
794.7933673501
 21
172.9776631555
 31
0.0
  0
LINE
  5
9F
330
1F
100
AcDbEntity
  8
0
  6
Continuous
 62
     7
370
    25
100
AcDbLine
 10
544.7933673501
 20
172.9776631555
 30
0.0
 11
544.7933673501
 21
84.5893244705
 31
0.0
  0
LINE
  5
A0
330
1F
100
AcDbEntity
  8
0
  6
Continuous
 62
     7
370
    25
100
AcDbLine
 10
544.7933673501
 20
291.3660179338
 30
0.0
 11
544.7933673501
 21
172.9776631555
 31
0.0
  0
LINE
  5
A1
330
1F
100
AcDbEntity
  8
0
  6
Continuous
 62
     7
370
    25
100
AcDbLine
 10
794.7933673501
 20
172.9776631555
 30
0.0
 11
794.7933673501
 21
291.3660179338
 31
0.0
  0
LINE
  5
A2
330
1F
100
AcDbEntity
  8
0
  6
Continuous
 62
     7
370
    25
100
AcDbLine
 10
544.7933673501
 20
-76.6339827814
 30
0.0
 11
794.7933673501
 21
-76.6339827814
 31
0.0
  0
LWPOLYLINE
  5
A3
330
1F
100
AcDbEntity
  8
0
  6
Continuous
 62
     7
370
    25
100
AcDbPolyline
 90
       60
 70
   128
 43
0.0
 10
544.7933673501
 20
291.3660179338
 10
544.9705272556
 20
296.0702251158
 10
545.5015152335
 20
300.7611106596
 10
546.3848262668
 20
305.4253827295
 10
547.6179420591
 20
310.0497792921
 10
549.1973831892
 20
314.6212171278
 10
551.1186644078
 20
319.1267322264
 10
553.3763467908
 20
323.5535691938
 10
555.9640228391
 20
327.8891514501
 10
558.8743611813
 20
332.1212302408
 10
562.0991065741
 20
336.2377654276
 10
565.6291246057
 20
340.2271043024
 10
569.4544091463
 20
344.0779517851
 10
573.5641196013
 20
347.7793704233
 10
577.9465958119
 20
351.3208697996
 10
582.5894251108
 20
354.6924363336
 10
587.4794423223
 20
357.8845034799
 10
592.6027893663
 20
360.8880113325
 10
597.9449376107
 20
363.6944364271
 10
603.4907549262
 20
366.295851346
 10
609.2245094121
 20
368.6848949156
 10
615.1299513519
 20
370.854742404
 10
621.1903467417
 20
372.7992545328
 10
627.3885108173
 20
374.5129476747
 10
633.7068751097
 20
375.9909640512
 10
640.1275302857
 20
377.2291015348
 10
646.6322764397
 20
378.2238434515
 10
653.2026771099
 20
378.9723883829
 10
659.8201039821
 20
379.4725905619
 10
666.4658020824
 20
379.7230492792
 10
673.1209326178
 20
379.7230492792
 10
679.7666307181
 20
379.4725905619
 10
686.3840575904
 20
378.9723883829
 10
692.9544582606
 20
378.2238434515
 10
699.4592044145
 20
377.2291015348
 10
705.8798595906
 20
375.9909640512
 10
712.1982238829
 20
374.5129476747
 10
718.3963879586
 20
372.7992545328
 10
724.4567833484
 20
370.854742404
 10
730.3622252882
 20
368.6848949156
 10
736.095979774
 20
366.295851346
 10
741.6417970896
 20
363.6944364271
 10
746.983945334
 20
360.8880113325
 10
752.107292378
 20
357.8845034799
 10
756.9973095894
 20
354.6924363336
 10
761.6401388884
 20
351.3208697996
 10
766.022615099
 20
347.7793704233
 10
770.1323255539
 20
344.0779517851
 10
773.9576100946
 20
340.2271043024
 10
777.4876281262
 20
336.2377654276
 10
780.712373519
 20
332.1212302408
 10
783.6227118612
 20
327.8891514501
 10
786.2103879094
 20
323.5535691938
 10
788.4680702925
 20
319.1267322264
 10
790.389351511
 20
314.6212171278
 10
791.9687926412
 20
310.0497792921
 10
793.2019084335
 20
305.4253827295
 10
794.0852194667
 20
300.7611106596
 10
794.6162074447
 20
296.0702251158
 10
794.7933673501
 20
291.3660179338
  0
LINE
  5
A4
330
1F
100
AcDbEntity
  8
0
  6
Continuous
 62
     1
370
    25
100
AcDbLine
 10
544.7933673501
 20
84.5893244705
 30
0.0
 11
794.7933673501
 21
84.5893244705
 31
0.0
  0
LWPOLYLINE
  5
A5
330
1F
100
AcDbEntity
  8
0
  6
Continuous
 62
     1
370
    25
100
AcDbPolyline
 90
       61
 70
   128
 43
0.0
 10
544.7933673501
 20
172.9776631555
 10
544.8376685024
 20
175.3306161127
 10
545.1918691039
 20
180.0298463068
 10
545.8992644787
 20
184.7090493402
 10
546.9578504205
 20
189.3550227842
 10
548.3646317959
 20
193.9545940122
 10
550.1156150937
 20
198.4946798048
 10
552.2058307767
 20
202.9624353609
 10
554.6293705344
 20
207.3451946936
 10
557.3793500305
 20
211.6305302343
 10
560.447983408
 20
215.806312438
 10
563.8265609384
 20
219.8607097826
 10
567.5055235267
 20
223.7821887693
 10
571.4744254589
 20
227.5596629343
 10
575.722023809
 20
231.1824034414
 10
580.2362784386
 20
234.6401582918
 10
585.0043892503
 20
237.9231523237
 10
590.0128408909
 20
241.0220276079
 10
595.247447455
 20
243.9280222616
 10
600.6933599353
 20
246.6329108438
 10
606.335140729
 20
249.1290043554
 10
612.1568046153
 20
251.4092396459
 10
618.1418448329
 20
253.4671794138
 10
624.2732964099
 20
255.2969227991
 10
630.5337771416
 20
256.8933438024
 10
636.9055471957
 20
258.2519124708
 10
643.3705389142
 20
259.3687545023
 10
649.9104294569
 20
260.2406810484
 10
656.5066817791
 20
260.865278121
 10
663.1405953892
 20
261.2407575807
 10
669.7933673501
 20
261.3660167417
 10
676.4461393111
 20
261.2407575807
 10
683.0800529212
 20
260.865278121
 10
689.6763052434
 20
260.2406810484
 10
696.216195786
 20
259.3687545023
 10
702.6811875046
 20
258.2519124708
 10
709.0529575587
 20
256.8933438024
 10
715.3134382904
 20
255.2969227991
 10
721.4448898673
 20
253.4671794138
 10
727.429930085
 20
251.4092396459
 10
733.2515939713
 20
249.1290043554
 10
738.8933747649
 20
246.6329108438
 10
744.3392872453
 20
243.9280222616
 10
749.5738938093
 20
241.0220276079
 10
754.58234545
 20
237.9231523237
 10
759.3504562617
 20
234.6401582918
 10
763.8647108913
 20
231.1824034414
 10
768.1123092413
 20
227.5596629343
 10
772.0812111736
 20
223.7821887693
 10
775.7601737619
 20
219.8607097826
 10
779.1387512923
 20
215.806312438
 10
782.2073846698
 20
211.6305302343
 10
784.9573641658
 20
207.3451946936
 10
787.3809039235
 20
202.9624353609
 10
789.4711196065
 20
198.4946798048
 10
791.2221029043
 20
193.9545940122
 10
792.6288842798
 20
189.3550227842
 10
793.6874702215
 20
184.7090493402
 10
794.3948655963
 20
180.0298463068
 10
794.7490661979
 20
175.3306161127
 10
794.7933673501
 20
172.9776631555
  0
LINE
  5
A6
330
1F
100
AcDbEntity
  8
0
  6
Continuous
 62
     7
370
    25
100
AcDbLine
 10
260.9616167959
 20
719.0933279047
 30
0.0
 11
142.5732694682
 21
719.0933279047
 31
0.0
  0
LINE
  5
A7
330
1F
100
AcDbEntity
  8
0
  6
Continuous
 62
     7
370
    25
100
AcDbLine
 10
142.5732694682
 20
469.0933279047
 30
0.0
 11
260.9616167959
 21
469.0933279047
 31
0.0
  0
LINE
  5
A8
330
1F
100
AcDbEntity
  8
0
  6
Continuous
 62
     7
370
    25
100
AcDbLine
 10
142.5732694682
 20
719.0933279047
 30
0.0
 11
105.9616156038
 21
719.0933279047
 31
0.0
  0
LINE
  5
A9
330
1F
100
AcDbEntity
  8
0
  6
Continuous
 62
     7
370
    25
100
AcDbLine
 10
105.9616156038
 20
469.0933279047
 30
0.0
 11
142.5732694682
 21
469.0933279047
 31
0.0
  0
CIRCLE
  5
AA
330
1F
100
AcDbEntity
  8
0
  6
Continuous
 62
     7
370
    25
100
AcDbCircle
 10
105.9616156038
 20
594.0933279047
 30
0.0
 40
102.3000000000001
  0
CIRCLE
  5
AB
330
1F
100
AcDbEntity
  8
0
  6
Continuous
 62
     7
370
    25
100
AcDbCircle
 10
105.9616156038
 20
594.0933279047
 30
0.0
 40
125.0
  0
LWPOLYLINE
  5
AC
330
1F
100
AcDbEntity
  8
0
  6
Continuous
 62
     7
370
    25
100
AcDbPolyline
 90
       61
 70
   128
 43
0.0
 10
260.9616167959
 20
719.0933279047
 10
265.665838879
 20
718.9161679993
 10
270.3567244228
 20
718.3851800213
 10
275.0209815916
 20
717.501868988
 10
279.6453781542
 20
716.2687531958
 10
284.2168159899
 20
714.6893120656
 10
288.7223310885
 20
712.7680308471
 10
293.1491680559
 20
710.510348464
 10
297.4847652134
 20
707.9226724157
 10
301.7168142018
 20
705.0123340735
 10
305.8333642897
 20
701.7875886807
 10
309.8227031645
 20
698.2575706492
 10
313.673535746
 20
694.4322861085
 10
317.3749692854
 20
690.3225756536
 10
320.9164835629
 20
685.940099443
 10
324.2880500969
 20
681.297270144
 10
327.480102342
 20
676.4072529326
 10
330.4836101946
 20
671.2839058886
 10
333.2900501904
 20
665.9417576442
 10
335.8914651093
 20
660.3959403286
 10
338.2804788765
 20
654.6621858428
 10
340.4503263649
 20
648.7567439029
 10
342.3948533949
 20
642.6963485131
 10
344.108561438
 20
636.4981844375
 10
345.5865629133
 20
630.1798201451
 10
346.8247003969
 20
623.7591649691
 10
347.8194423136
 20
617.2544188151
 10
348.5679723438
 20
610.684018145
 10
349.0681745228
 20
604.0665912727
 10
349.3186332401
 20
597.4208931724
 10
349.3186332401
 20
590.765762637
 10
349.0681745228
 20
584.1200645367
 10
348.5679723438
 20
577.5026376644
 10
347.8194423136
 20
570.9322369943
 10
346.8247003969
 20
564.4274908403
 10
345.5865629133
 20
558.0068356643
 10
344.108561438
 20
551.6884713719
 10
342.3948533949
 20
545.4903072963
 10
340.4503263649
 20
539.4299119065
 10
338.2804788765
 20
533.5244699667
 10
335.8914651093
 20
527.7907154808
 10
333.2900501904
 20
522.2448981652
 10
330.4836101946
 20
516.9027499209
 10
327.480102342
 20
511.7794028769
 10
324.2880500969
 20
506.8893856654
 10
320.9164835629
 20
502.2465563664
 10
317.3749692854
 20
497.8640801559
 10
313.673535746
 20
493.7543697009
 10
309.8227031645
 20
489.9290851603
 10
305.8333642897
 20
486.3990671287
 10
301.7168142018
 20
483.1743217359
 10
297.4847652134
 20
480.2639833937
 10
293.1491680559
 20
477.6763073454
 10
288.7223310885
 20
475.4186249623
 10
284.2168159899
 20
473.4973437438
 10
279.6453781542
 20
471.9179026136
 10
275.0209815916
 20
470.6847868214
 10
270.3567244228
 20
469.8014757881
 10
265.665838879
 20
469.2704878101
 10
260.9616167959
 20
469.0933279047
 10
260.9616167959
 20
469.0933279047
  0
ARC
  5
AD
330
1F
100
AcDbEntity
  8
0
  6
Continuous
 62
     7
370
    25
100
AcDbCircle
 10
328.3909552193
 20
594.0933279047
 30
0.0
 40
139.8152843884759
100
AcDbArc
 50
160.3005741977
 51
199.6994258023
  0
LWPOLYLINE
  5
AE
330
1F
100
AcDbEntity
  8
0
  6
Continuous
 62
     1
370
    25
100
AcDbPolyline
 90
       31
 70
   128
 43
0.0
 10
230.9616156038
 20
594.0933279047
 10
230.8363415417
 20
587.4405559438
 10
230.4608769831
 20
580.8066423336
 10
229.8362873611
 20
574.2103900114
 10
228.9643384632
 20
567.6704994688
 10
227.8475038823
 20
561.2055077503
 10
226.4889501151
 20
554.8337376962
 10
224.8925365624
 20
548.5732569645
 10
223.0627708253
 20
542.4418053875
 10
221.0048534092
 20
536.4567651699
 10
218.7246106681
 20
530.6351012836
 10
216.2285097059
 20
524.9933204899
 10
213.5236211237
 20
519.5474080095
 10
210.6176190194
 20
514.3128014455
 10
207.5187437352
 20
509.3043498049
 10
204.2357646045
 20
504.5362389932
 10
200.7780023035
 20
500.0219843636
 10
197.1552468952
 20
495.7743860135
 10
193.3777801808
 20
491.8054840813
 10
189.4562937435
 20
488.126521493
 10
185.4019187507
 20
484.7479439626
 10
181.226136547
 20
481.679310585
 10
176.9407935557
 20
478.929331089
 10
172.558034223
 20
476.5057913313
 10
168.0902712163
 20
474.4155756483
 10
163.5501816985
 20
472.6645923505
 10
158.9506328222
 20
471.2578109751
 10
154.3046593782
 20
470.1992250333
 10
149.6254302677
 20
469.4918296585
 10
144.9262112495
 20
469.1376290569
 10
142.5732694682
 20
469.0933279047
  0
LWPOLYLINE
  5
AF
330
1F
100
AcDbEntity
  8
0
  6
Continuous
 62
     1
370
    25
100
AcDbPolyline
 90
       31
 70
   128
 43
0.0
 10
142.5732694682
 20
719.0933279047
 10
144.9262112495
 20
719.0490267525
 10
149.6254302677
 20
718.6948261509
 10
154.3046593782
 20
717.9874307761
 10
158.9506328222
 20
716.9288448343
 10
163.5501816985
 20
715.5220634589
 10
168.0902712163
 20
713.7710801611
 10
172.558034223
 20
711.6808644781
 10
176.9407935557
 20
709.2573247204
 10
181.226136547
 20
706.5073452244
 10
185.4019187507
 20
703.4387118468
 10
189.4562937435
 20
700.0601343164
 10
193.3777801808
 20
696.3811717281
 10
197.1552468952
 20
692.4122697959
 10
200.7780023035
 20
688.1646714459
 10
204.2357646045
 20
683.6504168162
 10
207.5187437352
 20
678.8823060045
 10
210.6176190194
 20
673.8738543639
 10
213.5236211237
 20
668.6392477999
 10
216.2285097059
 20
663.1933353195
 10
218.7246106681
 20
657.5515545259
 10
221.0048534092
 20
651.7298906395
 10
223.0627708253
 20
645.7448504219
 10
224.8925365624
 20
639.613398845
 10
226.4889501151
 20
633.3529181132
 10
227.8475038823
 20
626.9811480591
 10
228.9643384632
 20
620.5161563406
 10
229.8362873611
 20
613.976265798
 10
230.4608769831
 20
607.3800134758
 10
230.8363415417
 20
600.7460998657
 10
230.9616156038
 20
594.0933279047
  0
LWPOLYLINE
  5
B0
330
1F
100
AcDbEntity
  8
0
  6
Continuous
 62
     1
370
    25
100
AcDbPolyline
 90
       48
 70
   128
 43
0.0
 10
127.4082254734
 20
694.1199875722
 10
125.7381592062
 20
693.5842759261
 10
121.6384604689
 20
692.0155263791
 10
117.610927124
 20
690.1092282782
 10
113.669445191
 20
687.8719381342
 10
109.8276005708
 20
685.3113747487
 10
106.0986369761
 20
682.4363670597
 10
102.4954090011
 20
679.2568168888
 10
99.0303376806
 20
675.7836989412
 10
95.7153676194
 20
672.0289713988
 10
92.5619270769
 20
668.0055833707
 10
89.5808845874
 20
663.7274078379
 10
86.7825191584
 20
659.2091820488
 10
84.1764755663
 20
654.4664963434
 10
81.7717392114
 20
649.5156898449
 10
79.5765970018
 20
644.3738281081
 10
77.598616865
 20
639.0586397896
 10
75.8446179446
 20
633.5884495924
 10
74.320646387
 20
627.9821074853
 10
73.0319567141
 20
622.2589477251
 10
71.9829894718
 20
616.4386938611
 10
71.1773619172
 20
610.5414103071
 10
70.6178531167
 20
604.5874269033
 10
70.3063853201
 20
598.5972676711
 10
70.2440388617
 20
592.5915830588
 10
70.4310260829
 20
586.591075203
 10
70.8667025086
 20
580.616429011
 10
71.5495668468
 20
574.6882404486
 10
72.4772609886
 20
568.8269450615
 10
73.6465960857
 20
563.0527488241
 10
75.0535320607
 20
557.3855578253
 10
76.6932241735
 20
551.8449037621
 10
78.5600174334
 20
546.4498861978
 10
80.6474782643
 20
541.2191092322
 10
82.948409405
 20
536.170599545
 10
85.4548797127
 20
531.3217616925
 10
88.1582502392
 20
526.6893110523
 10
91.0491993767
 20
522.2892142186
 10
94.117762905
 20
518.1366405735
 10
97.3533628624
 20
514.2459101329
 10
100.7448457297
 20
510.6304264913
 10
104.2805189848
 20
507.30265447
 10
107.9481955734
 20
504.2740754137
 10
111.7352320929
 20
501.5551126847
 10
115.6285734963
 20
499.1551540146
 10
119.6147989598
 20
497.0824620972
 10
123.6801672843
 20
495.3441969404
 10
127.4082254734
 20
494.0666682372
  0
INSERT
  5
BC
330
1F
100
AcDbEntity
  8
FORMAT
 62
     7
100
AcDbBlockReference
  2
SW_CENTERMARKSYMBOL_0
 10
105.9616156038
 20
594.0933279047
 30
0.0
  0
LINE
  5
BD
330
1F
100
AcDbEntity
  8
0
  6
Continuous
 62
     7
370
    25
100
AcDbLine
 10
260.9616167959
 20
-235.6882606319
 30
0.0
 11
142.5732694682
 21
-235.6882606319
 31
0.0
  0
LINE
  5
BE
330
1F
100
AcDbEntity
  8
0
  6
Continuous
 62
     7
370
    25
100
AcDbLine
 10
142.5732694682
 20
-485.6882606319
 30
0.0
 11
260.9616167959
 21
-485.6882606319
 31
0.0
  0
LINE
  5
BF
330
1F
100
AcDbEntity
  8
0
  6
Continuous
 62
     7
370
    25
100
AcDbLine
 10
105.9616156038
 20
-485.6882606319
 30
0.0
 11
142.5732694682
 21
-485.6882606319
 31
0.0
  0
LINE
  5
C0
330
1F
100
AcDbEntity
  8
0
  6
Continuous
 62
     7
370
    25
100
AcDbLine
 10
142.5732694682
 20
-235.6882606319
 30
0.0
 11
105.9616156038
 21
-235.6882606319
 31
0.0
  0
LWPOLYLINE
  5
C1
330
1F
100
AcDbEntity
  8
0
  6
Continuous
 62
     7
370
    25
100
AcDbPolyline
 90
      119
 70
   128
 43
0.0
 10
260.9616167959
 20
-485.6882606319
 10
265.665838879
 20
-485.5111007265
 10
270.3567244228
 20
-484.9801127485
 10
275.0209815916
 20
-484.0968017152
 10
279.6453781542
 20
-482.863685923
 10
284.2168159899
 20
-481.2842447928
 10
288.7223310885
 20
-479.3629635743
 10
293.1491680559
 20
-477.1052811912
 10
297.4847652134
 20
-474.5176051429
 10
301.7168142018
 20
-471.6072668007
 10
305.8333642897
 20
-468.3825214079
 10
309.8227031645
 20
-464.8525033763
 10
313.673535746
 20
-461.0272188357
 10
317.3749692854
 20
-456.9175083807
 10
320.9164835629
 20
-452.5350321702
 10
324.2880500969
 20
-447.8922028712
 10
327.480102342
 20
-443.0021856597
 10
330.4836101946
 20
-437.8788386158
 10
333.2900501904
 20
-432.5366903714
 10
335.8914651093
 20
-426.9908730558
 10
338.2804788765
 20
-421.2571185699
 10
340.4503263649
 20
-415.3516766301
 10
342.3948533949
 20
-409.2912812403
 10
344.108561438
 20
-403.0931171647
 10
345.5865629133
 20
-396.7747528723
 10
346.8247003969
 20
-390.3540976963
 10
347.8194423136
 20
-383.8493515423
 10
348.5679723438
 20
-377.2789508722
 10
349.0681745228
 20
-370.6615239999
 10
349.3186332401
 20
-364.0158258996
 10
349.3186332401
 20
-357.3606953642
 10
349.0681745228
 20
-350.7149972639
 10
348.5679723438
 20
-344.0975703916
 10
347.8194423136
 20
-337.5271697215
 10
346.8247003969
 20
-331.0224235675
 10
345.5865629133
 20
-324.6017683915
 10
344.108561438
 20
-318.2834040991
 10
342.3948533949
 20
-312.0852400235
 10
340.4503263649
 20
-306.0248446337
 10
338.2804788765
 20
-300.1194026938
 10
335.8914651093
 20
-294.385648208
 10
333.2900501904
 20
-288.8398308924
 10
330.4836101946
 20
-283.497682648
 10
327.480102342
 20
-278.374335604
 10
324.2880500969
 20
-273.4843183926
 10
320.9164835629
 20
-268.8414890936
 10
317.3749692854
 20
-264.459012883
 10
313.673535746
 20
-260.3493024281
 10
309.8227031645
 20
-256.5240178874
 10
305.8333642897
 20
-252.9939998559
 10
301.7168142018
 20
-249.7692544631
 10
297.4847652134
 20
-246.8589161209
 10
293.1491680559
 20
-244.2712400726
 10
288.7223310885
 20
-242.0135576895
 10
284.2168159899
 20
-240.092276471
 10
279.6453781542
 20
-238.5128353408
 10
275.0209815916
 20
-237.2797195486
 10
270.3567244228
 20
-236.3964085153
 10
265.665838879
 20
-235.8654205373
 10
260.9616167959
 20
-235.6882606319
 10
256.2573947128
 20
-235.8654205373
 10
251.566509169
 20
-236.3964085153
 10
246.9022520003
 20
-237.2797195486
 10
242.2778554377
 20
-238.5128353408
 10
237.706417602
 20
-240.092276471
 10
233.2008876022
 20
-242.0135576895
 10
228.7740655359
 20
-244.2712400726
 10
224.438475829
 20
-246.8589161209
 10
220.2064119395
 20
-249.7692544631
 10
216.0898767528
 20
-252.9939998559
 10
212.1005304274
 20
-256.5240178874
 10
208.2496903953
 20
-260.3493024281
 10
204.5482643065
 20
-264.459012883
 10
201.006750029
 20
-268.8414890936
 10
197.6351909455
 20
-273.4843183926
 10
194.4431312498
 20
-278.374335604
 10
191.4396233973
 20
-283.497682648
 10
188.6331834015
 20
-288.8398308924
 10
186.0317684826
 20
-294.385648208
 10
183.6427547154
 20
-300.1194026938
 10
181.4728997764
 20
-306.0248446337
 10
179.5283727464
 20
-312.0852400235
 10
177.8146721539
 20
-318.2834040991
 10
176.336663228
 20
-324.6017683915
 10
175.0985331949
 20
-331.0224235675
 10
174.1037912783
 20
-337.5271697215
 10
173.3552537974
 20
-344.0975703916
 10
172.8550516185
 20
-350.7149972639
 10
172.6045929011
 20
-357.3606953642
 10
172.6045929011
 20
-364.0158258996
 10
172.8550516185
 20
-370.6615239999
 10
173.3552537974
 20
-377.2789508722
 10
174.1037912783
 20
-383.8493515423
 10
175.0985331949
 20
-390.3540976963
 10
176.336663228
 20
-396.7747528723
 10
177.8146721539
 20
-403.0931171647
 10
179.5283727464
 20
-409.2912812403
 10
181.4728997764
 20
-415.3516766301
 10
183.6427547154
 20
-421.2571185699
 10
186.0317684826
 20
-426.9908730558
 10
188.6331834015
 20
-432.5366903714
 10
191.4396233973
 20
-437.8788386158
 10
194.4431312498
 20
-443.0021856597
 10
197.6351909455
 20
-447.8922028712
 10
201.006750029
 20
-452.5350321702
 10
204.5482643065
 20
-456.9175083807
 10
208.2496903953
 20
-461.0272188357
 10
212.1005304274
 20
-464.8525033763
 10
216.0898767528
 20
-468.3825214079
 10
220.2064119395
 20
-471.6072668007
 10
224.438475829
 20
-474.5176051429
 10
228.7740655359
 20
-477.1052811912
 10
233.2008876022
 20
-479.3629635743
 10
237.706417602
 20
-481.2842447928
 10
242.2778554377
 20
-482.863685923
 10
246.9022520003
 20
-484.0968017152
 10
251.566509169
 20
-484.9801127485
 10
256.2573947128
 20
-485.5111007265
 10
260.9616167959
 20
-485.6882606319
  0
LWPOLYLINE
  5
C2
330
1F
100
AcDbEntity
  8
0
  6
Continuous
 62
     7
370
    25
100
AcDbPolyline
 90
      108
 70
   128
 43
0.0
 10
260.9616167959
 20
-462.9882638029
 10
256.7163206753
 20
-462.8119383625
 10
252.4856723961
 20
-462.2835729888
 10
248.284245294
 20
-461.4049856237
 10
244.1265083965
 20
-460.1792086533
 10
240.0268115219
 20
-458.6104591063
 10
235.999280971
 20
-456.7041610054
 10
232.0577897247
 20
-454.4668708614
 10
228.215949994
 20
-451.9063074759
 10
224.4869865593
 20
-449.0312997869
 10
220.8837591228
 20
-445.851749616
 10
217.4186878022
 20
-442.3786316684
 10
214.1037158784
 20
-438.623904126
 10
210.9502725419
 20
-434.6005160979
 10
207.9692356404
 20
-430.3223405651
 10
205.1708646235
 20
-425.804114776
 10
202.564822894
 20
-421.0614290706
 10
200.1600884017
 20
-416.110622572
 10
197.9649461922
 20
-410.9687608353
 10
195.9869660553
 20
-405.6535725168
 10
194.2329652723
 20
-400.1833823195
 10
192.7089937147
 20
-394.5770402125
 10
191.4203040418
 20
-388.8538804523
 10
190.3713367995
 20
-383.0336265883
 10
189.5657129702
 20
-377.1363430342
 10
189.0061967191
 20
-371.1823596305
 10
188.6947326478
 20
-365.1922003983
 10
188.6323861894
 20
-359.186515786
 10
188.8193734106
 20
-353.1860079302
 10
189.255046111
 20
-347.2113617382
 10
189.9379141745
 20
-341.2831731758
 10
190.8656083163
 20
-335.4218777886
 10
192.0349396881
 20
-329.6476815513
 10
193.4418775257
 20
-323.9804905525
 10
195.0815715012
 20
-318.4398364893
 10
196.9483666238
 20
-313.044818925
 10
199.035825592
 20
-307.8140419594
 10
201.3367585954
 20
-302.7655322722
 10
203.8432307657
 20
-297.9166944197
 10
206.5465994295
 20
-293.2842437795
 10
209.4375439104
 20
-288.8841469458
 10
212.5061102327
 20
-284.7315733007
 10
215.7417111215
 20
-280.8408428601
 10
219.1331930575
 20
-277.2253592185
 10
222.6688660797
 20
-273.8975871972
 10
226.3365410384
 20
-270.8690081409
 10
230.1235817489
 20
-268.1500454119
 10
234.0169198927
 20
-265.7500867418
 10
238.0031444248
 20
-263.6773948244
 10
242.0685090241
 20
-261.9391296676
 10
246.1990065989
 20
-260.5412666372
 10
250.3803916392
 20
-259.4886262587
 10
254.598254722
 20
-258.7848518661
 10
258.8380523142
 20
-258.4323499969
 10
263.0851812777
 20
-258.4323499969
 10
267.3249788698
 20
-258.7848518661
 10
271.5428270516
 20
-259.4886262587
 10
275.724226993
 20
-260.5412666372
 10
279.8547096666
 20
-261.9391296676
 10
283.920089167
 20
-263.6773948244
 10
287.9063136992
 20
-265.7500867418
 10
291.7996443924
 20
-268.1500454119
 10
295.5866851029
 20
-270.8690081409
 10
299.2543675121
 20
-273.8975871972
 10
302.7900405344
 20
-277.2253592185
 10
306.1815150198
 20
-280.8408428601
 10
309.4171233591
 20
-284.7315733007
 10
312.4856896814
 20
-288.8841469458
 10
315.3766341623
 20
-293.2842437795
 10
318.0800028261
 20
-297.9166944197
 10
320.5864675459
 20
-302.7655322722
 10
322.8874005493
 20
-307.8140419594
 10
324.9748595175
 20
-313.044818925
 10
326.8416620907
 20
-318.4398364893
 10
328.4813560661
 20
-323.9804905525
 10
329.8882939037
 20
-329.6476815513
 10
331.0576178249
 20
-335.4218777886
 10
331.9853194174
 20
-341.2831731758
 10
332.6681800303
 20
-347.2113617382
 10
333.1038601812
 20
-353.1860079302
 10
333.2908399519
 20
-359.186515786
 10
333.2284934935
 20
-365.1922003983
 10
332.9170294222
 20
-371.1823596305
 10
332.3575206217
 20
-377.1363430342
 10
331.5518893417
 20
-383.0336265883
 10
330.5029220995
 20
-388.8538804523
 10
329.2142398771
 20
-394.5770402125
 10
327.6902683195
 20
-400.1833823195
 10
325.9362675366
 20
-405.6535725168
 10
323.9582873997
 20
-410.9687608353
 10
321.7631377396
 20
-416.110622572
 10
319.3584032473
 20
-421.0614290706
 10
316.7523689684
 20
-425.804114776
 10
313.954005402
 20
-430.3223405651
 10
310.9729535994
 20
-434.6005160979
 10
307.8195102629
 20
-438.623904126
 10
304.5045532402
 20
-442.3786316684
 10
301.0394819197
 20
-445.851749616
 10
297.4362470326
 20
-449.0312997869
 10
293.7072761473
 20
-451.9063074759
 10
289.8654438671
 20
-454.4668708614
 10
285.9239526209
 20
-456.7041610054
 10
281.8964220699
 20
-458.6104591063
 10
277.7967251953
 20
-460.1792086533
 10
273.6389882979
 20
-461.4049856237
 10
269.4375611958
 20
-462.2835729888
 10
265.2068980154
 20
-462.8119383625
 10
260.9616167959
 20
-462.9882638029
  0
ARC
  5
C3
330
1F
100
AcDbEntity
  8
0
  6
Continuous
 62
     7
370
    25
100
AcDbCircle
 10
105.9616156038
 20
-360.6882606319
 30
0.0
 40
125.0
100
AcDbArc
 50
90.0
 51
270.0
  0
ARC
  5
C4
330
1F
100
AcDbEntity
  8
0
  6
Continuous
 62
     7
370
    25
100
AcDbCircle
 10
105.9616156038
 20
-360.6882606319
 30
0.0
 40
102.3
100
AcDbArc
 50
332.5676251436
 51
27.4323748564
  0
LWPOLYLINE
  5
C5
330
1F
100
AcDbEntity
  8
0
  6
Continuous
 62
     1
370
    25
100
AcDbPolyline
 90
       61
 70
   128
 43
0.0
 10
142.5732694682
 20
-235.6882606319
 10
140.2203239617
 20
-235.7325617841
 10
135.5211068061
 20
-236.0867623857
 10
130.8418776956
 20
-236.7941577605
 10
126.1959042516
 20
-237.8527437023
 10
121.5963535127
 20
-239.2595250777
 10
117.0562639949
 20
-241.0105083755
 10
112.5885051791
 20
-243.1007240585
 10
108.2057416555
 20
-245.5242638162
 10
103.9203965687
 20
-248.2742433122
 10
99.7446173918
 20
-251.3428766898
 10
95.6902405363
 20
-254.7214542202
 10
91.7687587556
 20
-258.4004168085
 10
87.9912883159
 20
-262.3693187407
 10
84.3685347703
 20
-266.6169170907
 10
80.9107706067
 20
-271.1311717204
 10
77.6277952012
 20
-275.8992825321
 10
74.5289124664
 20
-280.9077341727
 10
71.6229140875
 20
-286.1423407367
 10
68.9180292305
 20
-291.5882532171
 10
66.4219245431
 20
-297.2300340107
 10
64.1416855272
 20
-303.0516978971
 10
62.0837643859
 20
-309.0367381147
 10
60.2540023741
 20
-315.1681896916
 10
58.6575813707
 20
-321.4286704234
 10
57.2990313288
 20
-327.8004404775
 10
56.1821967479
 20
-334.265432196
 10
55.3102478501
 20
-340.8053227386
 10
54.6856582281
 20
-347.4015750608
 10
54.3101936695
 20
-354.035488671
 10
54.1849196073
 20
-360.6882606319
 10
54.3101936695
 20
-367.3410325928
 10
54.6856582281
 20
-373.974946203
 10
55.3102478501
 20
-380.5711985252
 10
56.1821967479
 20
-387.1110890678
 10
57.2990313288
 20
-393.5760807863
 10
58.6575813707
 20
-399.9478508404
 10
60.2540023741
 20
-406.2083315722
 10
62.0837643859
 20
-412.3397831491
 10
64.1416855272
 20
-418.3248233667
 10
66.4219245431
 20
-424.146487253
 10
68.9180292305
 20
-429.7882680467
 10
71.6229140875
 20
-435.2341805271
 10
74.5289124664
 20
-440.4687870911
 10
77.6277952012
 20
-445.4772387317
 10
80.9107706067
 20
-450.2453495434
 10
84.3685347703
 20
-454.759604173
 10
87.9912883159
 20
-459.0072025231
 10
91.7687587556
 20
-462.9761044553
 10
95.6902405363
 20
-466.6550670436
 10
99.7446173918
 20
-470.033644574
 10
103.9203965687
 20
-473.1022779516
 10
108.2057416555
 20
-475.8522574476
 10
112.5885051791
 20
-478.2757972053
 10
117.0562639949
 20
-480.3660128883
 10
121.5963535127
 20
-482.1169961861
 10
126.1959042516
 20
-483.5237775615
 10
130.8418776956
 20
-484.5823635033
 10
135.5211068061
 20
-485.2897588781
 10
140.2203239617
 20
-485.6439594797
 10
142.5732694682
 20
-485.6882606319
  0
LWPOLYLINE
  5
C6
330
1F
100
AcDbEntity
  8
0
  6
Continuous
 62
     1
370
    25
100
AcDbPolyline
 90
       23
 70
   128
 43
0.0
 10
201.7674394068
 20
-301.8886883429
 10
202.1981276688
 20
-302.7655322722
 10
204.4990606722
 20
-307.8140419594
 10
206.5865196404
 20
-313.044818925
 10
208.453314763
 20
-318.4398364893
 10
210.0930012879
 20
-323.9804905525
 10
211.4999391255
 20
-329.6476815513
 10
212.6692704972
 20
-335.4218777886
 10
213.5969720897
 20
-341.2831731758
 10
214.2798327026
 20
-347.2113617382
 10
214.7155128535
 20
-353.1860079302
 10
214.9025000748
 20
-359.186515786
 10
214.8401536163
 20
-365.1922003983
 10
214.5286820945
 20
-371.1823596305
 10
213.969173294
 20
-377.1363430342
 10
213.1635494646
 20
-383.0336265883
 10
212.1145822224
 20
-388.8538804523
 10
210.8258925494
 20
-394.5770402125
 10
209.3019209918
 20
-400.1833823195
 10
207.5479202088
 20
-405.6535725168
 10
205.569940072
 20
-410.9687608353
 10
203.3747978624
 20
-416.110622572
 10
201.7674394068
 20
-419.4878329209
  0
INSERT
  5
D2
330
1F
100
AcDbEntity
  8
FORMAT
 62
     7
100
AcDbBlockReference
  2
SW_CENTERMARKSYMBOL_1
 10
105.9616156038
 20
-360.6882606319
 30
0.0
  0
LINE
  5
D3
330
1F
100
AcDbEntity
  8
0
  6
Continuous
 62
     7
370
    25
100
AcDbLine
 10
478.7696742169
 20
-439.0098937295
 30
0.0
 11
478.7696742169
 21
-570.6553039279
 31
0.0
  0
LINE
  5
D4
330
1F
100
AcDbEntity
  8
0
  6
Continuous
 62
     7
370
    25
100
AcDbLine
 10
728.7696699383
 20
-570.6553039279
 30
0.0
 11
728.7696699383
 21
-439.0098937295
 31
0.0
  0
LINE
  5
D5
330
1F
100
AcDbEntity
  8
0
  6
Continuous
 62
     7
370
    25
100
AcDbLine
 10
605.1180498602
 20
-144.3966620842
 30
0.0
 11
521.4048466514
 21
-289.3921889645
 31
0.0
  0
LINE
  5
D6
330
1F
100
AcDbEntity
  8
0
  6
Continuous
 62
     7
370
    25
100
AcDbLine
 10
737.9111949398
 20
-414.3921756301
 30
0.0
 11
821.6243928803
 21
-269.3966517912
 31
0.0
  0
SPLINE
  5
D7
330
1F
100
AcDbEntity
  8
0
  6
Continuous
 62
     7
370
    25
100
AcDbSpline
210
0.0
220
0.0
230
1.0
 70
     8
 71
     3
 72
    25
 73
    21
 74
     0
 42
0.000000001
 43
0.00000001
 40
0.0
 40
0.0
 40
0.0
 40
0.0
 40
0.0324097309648898
 40
0.088127607245572
 40
0.1438987813790861
 40
0.1997504373187433
 40
0.2557117858566572
 40
0.3118105124769744
 40
0.3680718581425557
 40
0.4245183501471038
 40
0.4811674202568157
 40
0.5380307390965043
 40
0.595112407374109
 40
0.6524068348949031
 40
0.7098971383269576
 40
0.7675535782352533
 40
0.8253318082014423
 40
0.8831607931100707
 40
0.9409546388901866
 40
1.0
 40
1.0
 40
1.0
 40
1.0
 10
521.4048466513538
 20
-289.3921889645081
 30
0.0
 10
520.5425648162643
 20
-290.9016155748866
 30
0.0
 10
518.1978728785225
 20
-295.00600495194
 30
0.0
 10
514.538030485812
 20
-301.8006359057616
 30
0.0
 10
510.4840043527897
 20
-309.7982467344512
 30
0.0
 10
506.6459281885384
 20
-317.9024420681038
 30
0.0
 10
503.0246191786665
 20
-326.1059583929359
 30
0.0
 10
499.6260541469408
 20
-334.4044673712956
 30
0.0
 10
496.4554203985176
 20
-342.7927825311867
 30
0.0
 10
493.5189064292765
 20
-351.265641975377
 30
0.0
 10
490.8231229857487
 20
-359.8172750281483
 30
0.0
 10
488.3753505460446
 20
-368.4412047902278
 30
0.0
 10
486.1834133419137
 20
-377.1300092063789
 30
0.0
 10
484.25566338271
 20
-385.8749764469671
 30
0.0
 10
482.6006496641691
 20
-394.6658782321264
 30
0.0
 10
481.2277938178447
 20
-403.4905644817591
 30
0.0
 10
480.1437878659014
 20
-412.3344605225087
 30
0.0
 10
479.3648036435971
 20
-421.1792935956436
 30
0.0
 10
478.8648437386893
 20
-430.077886651866
 30
0.0
 10
478.8016231186408
 20
-436.0113726577878
 30
0.0
 10
478.7696742169005
 20
-439.0098937294836
 30
0.0
  0
SPLINE
  5
D8
330
1F
100
AcDbEntity
  8
0
  6
Continuous
 62
     7
370
    25
100
AcDbSpline
210
0.0
220
0.0
230
1.0
 70
     8
 71
     3
 72
    23
 73
    19
 74
     0
 42
0.000000001
 43
0.00000001
 40
0.0
 40
0.0
 40
0.0
 40
0.0
 40
0.0120988270080066
 40
0.0842801980803348
 40
0.1542834897976575
 40
0.222595261002254
 40
0.2896650628231191
 40
0.3558976445848941
 40
0.4216458506601067
 40
0.4872084321741494
 40
0.5528231600567761
 40
0.6186471475181348
 40
0.6847752437367788
 40
0.7512878098098394
 40
0.8182114629638415
 40
0.8855269318340211
 40
0.9531789434790908
 40
0.9999999999999999
 40
0.9999999999999999
 40
0.9999999999999999
 40
0.9999999999999999
 10
728.7686268038321
 20
-439.1114100189213
 30
0.0
 10
728.768530347128
 20
-439.1181062796938
 30
0.0
 10
728.7678584315686
 20
-439.1647523044639
 30
0.0
 10
728.7750175870838
 20
-438.9674234006537
 30
0.0
 10
728.8182800047957
 20
-438.5004944509452
 30
0.0
 10
728.9161125771443
 20
-437.7284724417686
 30
0.0
 10
729.0850287351549
 20
-436.6984382914134
 30
0.0
 10
729.3405125184524
 20
-435.4167216868742
 30
0.0
 10
729.6959157584819
 20
-433.9019515930112
 30
0.0
 10
730.1626051528509
 20
-432.1717642689018
 30
0.0
 10
730.7496704019618
 20
-430.2471136464
 30
0.0
 10
731.4633184120182
 20
-428.1516937290796
 30
0.0
 10
732.3067282500222
 20
-425.9118979678171
 30
0.0
 10
733.2801776414468
 20
-423.5565167260901
 30
0.0
 10
734.379357137697
 20
-421.1154622101123
 30
0.0
 10
735.6009853825016
 20
-418.6231299157987
 30
0.0
 10
736.7832506521775
 20
-416.367276260327
 30
0.0
 10
737.5897423339721
 20
-414.9688607992367
 30
0.0
 10
737.9196085044341
 20
-414.3968896763129
 30
0.0
  0
LWPOLYLINE
  5
D9
330
1F
100
AcDbEntity
  8
0
  6
Continuous
 62
     7
370
    25
100
AcDbPolyline
 90
      119
 70
   128
 43
0.0
 10
515.3813244293
 20
-519.629796939
 10
520.2108155671
 20
-516.9864258334
 10
525.2771660665
 20
-514.4951868374
 10
530.5660160355
 20
-512.1631410321
 10
536.0623615251
 20
-509.9968940552
 10
541.7506345432
 20
-508.0025924897
 10
547.6147073348
 20
-506.1858848962
 10
553.6379582365
 20
-504.5519263753
 10
559.8033125064
 20
-503.1053428312
 10
566.0932950072
 20
-501.850237055
 10
572.4900723539
 20
-500.790164393
 10
578.9755134989
 20
-499.9281342684
 10
585.5312397822
 20
-499.2665873703
 10
592.1386697119
 20
-498.8074002161
 10
598.7790584771
 20
-498.5518745067
 10
605.4335980467
 20
-498.500734085
 10
612.0834224376
 20
-498.654121895
 10
618.7096814719
 20
-499.0116060638
 10
625.2935881917
 20
-499.5721707782
 10
631.8164926167
 20
-500.3342284497
 10
638.2598843778
 20
-501.2956212353
 10
644.6055138896
 20
-502.4536179963
 10
650.8353897162
 20
-503.8049431909
 10
656.9318549621
 20
-505.345760147
 10
662.8776188828
 20
-507.0717075583
 10
668.6558398611
 20
-508.9778865588
 10
674.2501346267
 20
-511.0588964583
 10
679.6446427936
 20
-513.3088415858
 10
684.8240742754
 20
-515.7213404137
 10
689.7737501152
 20
-518.2895552104
 10
694.4796380464
 20
-521.0062064876
 10
698.9283985916
 20
-523.8635935286
 10
703.1074219405
 20
-526.8536156787
 10
707.0048635116
 20
-529.9677989562
 10
710.6096689767
 20
-533.1973165821
 10
713.9116256277
 20
-536.5330125506
 10
716.9013781813
 20
-539.965429001
 10
719.5704406329
 20
-543.4848434747
 10
721.9112581599
 20
-547.0812742371
 10
723.9171847313
 20
-550.7445281798
 10
725.5825463274
 20
-554.4642190676
 10
726.9026119645
 20
-558.2298116392
 10
727.8736437441
 20
-562.0306200861
 10
728.4928915842
 20
-565.8558780037
 10
728.7585958539
 20
-569.6947399121
 10
728.6700084467
 20
-573.5363238352
 10
728.2273769753
 20
-577.3697386729
 10
727.4319553084
 20
-581.1841267797
 10
726.2859983024
 20
-584.9686670069
 10
724.7927565331
 20
-588.7126324873
 10
722.9564578562
 20
-592.4054134465
 10
720.7823153099
 20
-596.0365430535
 10
718.2764876026
 20
-599.5957263141
 10
715.4460817465
 20
-603.0728750465
 10
712.2991109113
 20
-606.4581322119
 10
708.8445049604
 20
-609.7419023282
 10
705.0920485482
 20
-612.9148750407
 10
701.0523890223
 20
-615.9680631389
 10
696.7369689227
 20
-618.8928050273
 10
692.1580197259
 20
-621.6808109168
 10
687.3285285882
 20
-624.3241820224
 10
682.2621780887
 20
-626.8154210183
 10
676.9733281197
 20
-629.1474668237
 10
671.4769826301
 20
-631.3137138006
 10
665.788709612
 20
-633.3080153661
 10
659.9246368204
 20
-635.1247229596
 10
653.9013859187
 20
-636.7586814805
 10
647.7360316489
 20
-638.2052650245
 10
641.446049148
 20
-639.4603708008
 10
635.0492718013
 20
-640.5204434627
 10
628.5638306563
 20
-641.3824735873
 10
622.008104373
 20
-642.0440204854
 10
615.4006744434
 20
-642.5032076397
 10
608.7602856781
 20
-642.7587333491
 10
602.1057461085
 20
-642.8098737707
 10
595.4559217176
 20
-642.6564859608
 10
588.8296626834
 20
-642.2990017919
 10
582.2457559635
 20
-641.7384370775
 10
575.7228515385
 20
-640.9763794061
 10
569.2794597774
 20
-640.0149866205
 10
562.9338302656
 20
-638.8569898595
 10
556.7039544391
 20
-637.5056646649
 10
550.6074891931
 20
-635.9648477088
 10
544.6617252724
 20
-634.2389002975
 10
538.8835042941
 20
-632.332721297
 10
533.2892095286
 20
-630.2517113975
 10
527.8947013617
 20
-628.0017662699
 10
522.7152698798
 20
-625.5892674421
 10
517.7655940401
 20
-623.0210526454
 10
513.0597061088
 20
-620.3044013682
 10
508.6109455637
 20
-617.4470143271
 10
504.4319222148
 20
-614.456992177
 10
500.5344806437
 20
-611.3428088996
 10
496.9296751785
 20
-608.1132912736
 10
493.6277185275
 20
-604.7775953051
 10
490.6379659739
 20
-601.3451788547
 10
487.9689035223
 20
-597.8257643811
 10
485.6280859953
 20
-594.2293336186
 10
483.622159424
 20
-590.566079676
 10
481.9567978279
 20
-586.8463887882
 10
480.6367321907
 20
-583.0807962165
 10
479.6657004112
 20
-579.2799877696
 10
479.0464525711
 20
-575.4547298521
 10
478.7807483013
 20
-571.6158679436
 10
478.8693357086
 20
-567.7742840205
 10
479.31196718
 20
-563.9408691829
 10
480.1073888469
 20
-560.126481076
 10
481.2533458528
 20
-556.3419408489
 10
482.7465876221
 20
-552.5979753684
 10
484.5828862991
 20
-548.9051944093
 10
486.7570288453
 20
-545.2740648023
 10
489.2628565526
 20
-541.7148815416
 10
492.0932624087
 20
-538.2377328093
 10
495.2402332439
 20
-534.8524756439
 10
498.6948391948
 20
-531.5687055276
 10
502.447295607
 20
-528.395732815
 10
506.4869551329
 20
-525.3425447169
 10
510.8023752325
 20
-522.4178028284
 10
515.3813244293
 20
-519.629796939
  0
LWPOLYLINE
  5
DA
330
1F
100
AcDbEntity
  8
0
  6
Continuous
 62
     7
370
    25
100
AcDbPolyline
 90
      108
 70
   128
 43
0.0
 10
531.43264612
 20
-528.8960277137
 10
527.3120396203
 20
-531.4187567323
 10
523.4549971206
 20
-534.0767417494
 10
519.8748172687
 20
-536.8608214367
 10
516.5838398718
 20
-539.7613965107
 10
513.5934129686
 20
-542.7684730713
 10
510.9138375125
 20
-545.8716762889
 10
508.5543594683
 20
-549.0603157928
 10
506.5231052752
 20
-552.3233985974
 10
504.8270792126
 20
-555.6496732015
 10
503.47213179
 20
-559.0276782506
 10
502.4629255024
 20
-562.4457623051
 10
501.8029480015
 20
-565.8921492299
 10
501.4944752173
 20
-569.3549534009
 10
501.5385608208
 20
-572.8222405325
 10
501.9350625665
 20
-576.2820611321
 10
502.6826027793
 20
-579.7224824347
 10
503.7786157698
 20
-583.1316461885
 10
505.2193162241
 20
-586.4978051512
 10
506.999743985
 20
-589.8093489417
 10
509.1137535151
 20
-593.054864867
 10
511.5540639464
 20
-596.2231668151
 10
514.3122617143
 20
-599.3033271898
 10
517.3788361189
 20
-602.2847339352
 10
520.7432135696
 20
-605.1571103053
 10
524.3938056588
 20
-607.9105486989
 10
528.3180226618
 20
-610.5355610318
 10
532.5023372511
 20
-613.0230972704
 10
536.9323215399
 20
-615.3645850642
 10
541.5927116189
 20
-617.5519487545
 10
546.4674371911
 20
-619.5776508127
 10
551.5396984569
 20
-621.4347058114
 10
556.792004474
 20
-623.116714735
 10
562.2062492198
 20
-624.6178784757
 10
567.7637748113
 20
-625.9330221641
 10
573.4454228716
 20
-627.0576126574
 10
579.2316003846
 20
-627.987772225
 10
585.1023692568
 20
-628.7202937559
 10
591.0374831958
 20
-629.2526559648
 10
597.0164930774
 20
-629.5830173099
 10
603.0187785562
 20
-629.7102464064
 10
609.0236560661
 20
-629.6338992162
 10
615.0104156996
 20
-629.3542403372
 10
620.9584344767
 20
-628.8722323591
 10
626.847197419
 20
-628.1895419456
 10
632.6564029164
 20
-627.3085155038
 10
638.3660364842
 20
-626.2321974323
 10
643.9564050073
 20
-624.9642921042
 10
649.408244742
 20
-623.5091745118
 10
654.7027516083
 20
-621.8718545308
 10
659.8216865575
 20
-620.057983003
 10
664.7474012553
 20
-618.0738125785
 10
669.4629065705
 20
-615.9261764268
 10
673.9519609846
 20
-613.6224858601
 10
678.1990788234
 20
-611.1706769199
 10
682.1896203133
 20
-608.5792009678
 10
685.9098383377
 20
-605.856997693
 10
689.346894736
 20
-603.0134431247
 10
692.4889528292
 20
-600.0583448796
 10
695.3251815358
 20
-597.0018911242
 10
697.8457922502
 20
-593.8546110371
 10
700.042106673
 20
-590.6273599826
 10
701.9065462738
 20
-587.3312586834
 10
703.4326941951
 20
-583.9776757328
 10
704.6152768124
 20
-580.5781652468
 10
705.450229589
 20
-577.1444470955
 10
705.9346654658
 20
-573.6883643239
 10
706.0669170081
 20
-570.2218223249
 10
705.8465258689
 20
-566.7567766736
 10
705.2742612281
 20
-563.3051677384
 10
704.3520829144
 20
-559.8788993916
 10
703.0831809171
 20
-556.4897766613
 10
701.4719227036
 20
-553.149487483
 10
699.5238637553
 20
-549.8695418734
 10
697.2457212262
 20
-546.6612506398
 10
694.6453476009
 20
-543.5356736779
 10
691.7317069874
 20
-540.5035819541
 10
688.5148448236
 20
-537.5754278529
 10
685.0058457305
 20
-534.7613086803
 10
681.2168101343
 20
-532.0709227541
 10
677.1607948324
 20
-529.5135472595
 10
672.8517887917
 20
-527.0979938635
 10
668.3046413677
 20
-524.8325916081
 10
663.5350293772
 20
-522.7251496532
 10
658.5593884446
 20
-520.7829358921
 10
653.3948808984
 20
-519.0126401701
 10
648.0593085137
 20
-517.4203664913
 10
642.5710539019
 20
-516.0116052656
 10
636.9490462663
 20
-514.7912135406
 10
631.2126626206
 20
-513.763394472
 10
625.3816724709
 20
-512.9316958029
 10
619.4761877665
 20
-512.2989809712
 10
613.5165575326
 20
-511.8674351921
 10
607.5233230896
 20
-511.6385396065
 10
601.5171548324
 20
-511.6130895293
 10
595.518752132
 20
-511.7911670771
 10
589.5487880177
 20
-512.1721639786
 10
583.6278512249
 20
-512.7547663674
 10
577.7763408284
 20
-513.536960865
 10
572.0144399001
 20
-514.5160558703
 10
566.3620022399
 20
-515.6886739561
 10
560.8385181311
 20
-517.050771638
 10
555.4630300467
 20
-518.5976576224
 10
550.2540562582
 20
-520.3239943275
 10
545.2295684453
 20
-522.2238351395
 10
540.4068784259
 20
-524.290628975
 10
535.802614449
 20
-526.5172522151
 10
531.43264612
 20
-528.8960277137
  0
LWPOLYLINE
  5
DB
330
1F
100
AcDbEntity
  8
0
  6
Continuous
 62
     7
370
    25
100
AcDbPolyline
 90
      119
 70
   128
 43
0.0
 10
624.9828763561
 20
-155.8711484281
 10
628.4345346618
 20
-157.8643604374
 10
632.1269568396
 20
-159.9965728693
 10
636.0496799343
 20
-162.2617438244
 10
640.1915666413
 20
-164.6534177829
 10
644.5408948683
 20
-167.1648381543
 10
649.0853261254
 20
-169.7888803596
 10
653.8119950872
 20
-172.5181157119
 10
658.707488519
 20
-175.3447870812
 10
663.7579190343
 20
-178.2609244864
 10
668.9489988514
 20
-181.2582051764
 10
674.2659871101
 20
-184.3281665489
 10
679.6938215803
 20
-187.462111865
 10
685.2171344675
 20
-190.6511315378
 10
690.8202418757
 20
-193.8861943858
 10
696.4872755163
 20
-197.1581506776
 10
702.2021616351
 20
-200.4577199629
 10
707.9487158422
 20
-203.7755336591
 10
713.7106378439
 20
-207.1021806761
 10
719.4716010048
 20
-210.4282591266
 10
725.2152655185
 20
-213.7443474298
 10
730.9253574333
 20
-217.041001266
 10
736.5856923592
 20
-220.3088889364
 10
742.1802307862
 20
-223.5387624669
 10
747.6930938892
 20
-226.7214788929
 10
753.1086781145
 20
-229.8479934209
 10
758.4116169847
 20
-232.9094468709
 10
763.586882514
 20
-235.8971755651
 10
768.6198062821
 20
-238.8026869892
 10
773.496125532
 20
-241.6177594082
 10
778.2020134632
 20
-244.3344106854
 10
782.7241305982
 20
-246.9449401042
 10
787.0496616609
 20
-249.441949658
 10
791.1663458696
 20
-251.8183493689
 10
795.0625072301
 20
-254.0674234443
 10
798.7271006341
 20
-256.1827838853
 10
802.1497540054
 20
-258.158431321
 10
805.3207432759
 20
-259.9887892202
 10
808.2311017036
 20
-261.6686575068
 10
810.872565872
 20
-263.1932543743
 10
813.2376547154
 20
-264.5582497445
 10
815.3196616167
 20
-265.7598215371
 10
817.1126781144
 20
-266.7945476814
 10
818.6116307817
 20
-267.6594760716
 10
819.8122733235
 20
-268.3521565047
 10
820.7111918453
 20
-268.8706437144
 10
821.3058417309
 20
-269.2134699946
 10
821.5945371065
 20
-269.3796512744
 10
821.5764719136
 20
-269.3686992874
 10
821.2516830306
 20
-269.1806732707
 10
820.6210818832
 20
-268.816100878
 10
819.6864913225
 20
-268.2759873035
 10
818.4505244532
 20
-267.5619156507
 10
816.9167005371
 20
-266.6758705099
 10
815.0893712364
 20
-265.6203778765
 10
812.9737100766
 20
-264.3984260559
 10
810.575712447
 20
-263.0134778331
 10
807.9021797953
 20
-261.4694491707
 10
804.9606880175
 20
-259.7707396314
 10
801.7595716528
 20
-257.9221624059
 10
798.3079133471
 20
-255.9289503966
 10
794.6154911694
 20
-253.7967379647
 10
790.6927680746
 20
-251.5315670096
 10
786.5508813676
 20
-249.1398930511
 10
782.2015531406
 20
-246.6284726797
 10
777.6571113468
 20
-244.0044365571
 10
772.9304529218
 20
-241.2751951222
 10
768.0349647583
 20
-238.4485207114
 10
762.9845237063
 20
-235.532389389
 10
757.7934544259
 20
-232.5351026163
 10
752.4764608989
 20
-229.4651442851
 10
747.0486211602
 20
-226.3312020104
 10
741.5253135414
 20
-223.1421792962
 10
735.9222061332
 20
-219.9071164482
 10
730.2551777609
 20
-216.635157115
 10
724.5402863738
 20
-213.3355908711
 10
718.7937321668
 20
-210.0177771749
 10
713.0318101651
 20
-206.6911301579
 10
707.2708470042
 20
-203.3650517075
 10
701.5271824904
 20
-200.0489634042
 10
695.8170853073
 20
-196.7523126094
 10
690.1567503814
 20
-193.484424939
 10
684.5622172227
 20
-190.2545483671
 10
679.0493488514
 20
-187.0718349824
 10
673.6337698944
 20
-183.9453174131
 10
668.3308310243
 20
-180.8838639631
 10
663.1555602266
 20
-177.8961383102
 10
658.1226364585
 20
-174.9906268862
 10
653.2463172086
 20
-172.1755544671
 10
648.5404292774
 20
-169.45890319
 10
644.0183121424
 20
-166.8483737712
 10
639.6927810797
 20
-164.3513642173
 10
635.5761021394
 20
-161.9749614652
 10
631.6799407788
 20
-159.7258873897
 10
628.0153421065
 20
-157.6105299901
 10
624.5926940035
 20
-155.6348795131
 10
621.4216994646
 20
-153.8045246551
 10
618.511341037
 20
-152.1246563685
 10
615.8698821369
 20
-150.6000564598
 10
613.5047932935
 20
-149.2350610895
 10
611.4227863923
 20
-148.0334892969
 10
609.6297698946
 20
-146.9987631526
 10
608.1308172273
 20
-146.1338347624
 10
606.9301799538
 20
-145.441151288
 10
606.0312561636
 20
-144.9226671197
 10
605.436606278
 20
-144.5798408394
 10
605.1479056341
 20
-144.413662601
 10
605.1659760954
 20
-144.4246115467
 10
605.4907702467
 20
-144.612634522
 10
606.1213608574
 20
-144.9772129974
 10
607.0559619548
 20
-145.5173204892
 10
608.2919235557
 20
-146.2313951833
 10
609.8257369351
 20
-147.1174464068
 10
611.6530767725
 20
-148.1729329575
 10
613.7687379323
 20
-149.3948847781
 10
616.1667355619
 20
-150.779833001
 10
618.8402682136
 20
-152.3238616633
 10
621.7817599915
 20
-154.0225712026
 10
624.9828763561
 20
-155.8711484281
  0
LWPOLYLINE
  5
DC
330
1F
100
AcDbEntity
  8
0
  6
Continuous
 62
     7
370
    25
100
AcDbPolyline
 90
      108
 70
   128
 43
0.0
 10
641.0341980469
 20
-165.1373792029
 10
638.1570012864
 20
-163.4758576842
 10
635.539091938
 20
-161.9640093787
 10
633.1894894272
 20
-160.6070430239
 10
631.1162806806
 20
-159.4096655253
 10
629.3266306624
 20
-158.3759541961
 10
627.8266928126
 20
-157.5095362203
 10
626.6216406567
 20
-156.8133635495
 10
625.7156414644
 20
-156.2898254526
 10
625.1118035657
 20
-155.9407241688
 10
624.8122184982
 20
-155.7673053258
 10
624.8179083227
 20
-155.7701423438
 10
625.1288625027
 20
-155.9492124739
 10
625.7440062934
 20
-156.3039089633
 10
626.6612218158
 20
-156.8330106299
 10
627.8773427878
 20
-157.5346848958
 10
629.3881782322
 20
-158.4065318946
 10
631.1885230132
 20
-159.4455175384
 10
633.2721683731
 20
-160.6480830218
 10
635.6319309086
 20
-162.0101067937
 10
638.2596736436
 20
-163.5268254617
 10
641.1463455424
 20
-165.1930634466
 10
644.2819894121
 20
-167.0030671966
 10
647.6557985373
 20
-168.950574382
 10
651.2561456561
 20
-171.0289097103
 10
655.0706099606
 20
-173.2308849174
 10
659.0860538172
 20
-175.5489099831
 10
663.2886285287
 20
-177.9749964497
 10
667.6638482562
 20
-180.5007757656
 10
672.1966282146
 20
-183.1175578347
 10
676.8713511856
 20
-185.8163024962
 10
681.671891719
 20
-188.5877125788
 10
686.5817071767
 20
-191.4222621327
 10
691.5838716479
 20
-194.3101369164
 10
696.6611444373
 20
-197.2414016962
 10
701.796021432
 20
-200.2059447284
 10
706.9707956871
 20
-203.1935431572
 10
712.1676364515
 20
-206.1939329735
 10
717.3686260464
 20
-209.1967268827
 10
722.5558336218
 20
-212.1915968132
 10
727.7113783773
 20
-215.1682130781
 10
732.8174954162
 20
-218.1163189001
 10
737.8565726241
 20
-221.0257517006
 10
742.8112454996
 20
-223.8864674352
 10
747.6644340322
 20
-226.688634891
 10
752.3994006547
 20
-229.4225413889
 10
756.9998398052
 20
-232.0788209212
 10
761.4498726583
 20
-234.6482929356
 10
765.7341735665
 20
-237.1221083444
 10
769.8379595224
 20
-239.4917130239
 10
773.7471007952
 20
-241.7489481954
 10
777.4481156617
 20
-243.8860534701
 10
780.9282388952
 20
-245.8956455601
 10
784.1754849856
 20
-247.7708034476
 10
787.1786586762
 20
-249.5050623107
 10
789.9273918424
 20
-251.0924348127
 10
792.4122172483
 20
-252.5274658624
 10
794.6245843519
 20
-253.8051809106
 10
796.5568382321
 20
-254.9211954475
 10
798.202356565
 20
-255.8716602699
 10
799.5554284529
 20
-256.653313184
 10
800.6114019373
 20
-257.2634425134
 10
801.3666471208
 20
-257.699938818
 10
801.8185614356
 20
-257.9612857657
 10
801.9655696432
 20
-258.046633149
 10
801.8071712498
 20
-257.9556417517
 10
801.3439299695
 20
-257.6886476183
 10
800.5774210407
 20
-257.2465586315
 10
799.5102891782
 20
-256.6309001486
 10
798.1462222312
 20
-255.8437997988
 10
796.489914305
 20
-254.8879661936
 10
794.5470842001
 20
-253.7667117487
 10
792.3244227286
 20
-252.4838614317
 10
789.8295979829
 20
-251.0438653196
 10
787.0712026517
 20
-249.4516951773
 10
784.0587487519
 20
-247.7128292584
 10
780.8026123107
 20
-245.8332812062
 10
777.3140346828
 20
-243.8194791476
 10
773.6050277202
 20
-241.6784056197
 10
769.6883872718
 20
-239.417435031
 10
765.5776021401
 20
-237.0443540997
 10
761.2868562216
 20
-234.5673509318
 10
756.8309356512
 20
-231.9949614093
 10
752.2252011444
 20
-229.3360532265
 10
747.4855246115
 20
-226.5998014649
 10
742.6282517859
 20
-223.795606183
 10
737.6701307714
 20
-220.9331728381
 10
732.6282376271
 20
-218.0223476491
 10
727.5199631964
 20
-215.0731830017
 10
722.3629143253
 20
-212.0958195797
 10
717.1748638129
 20
-209.1005304727
 10
711.973710899
 20
-206.097637531
 10
706.7773811651
 20
-203.0975144067
 10
701.6037712167
 20
-200.110469446
 10
696.4707223416
 20
-197.1468399865
 10
691.3959362162
 20
-194.2168098527
 10
686.3969143194
 20
-191.3304838768
 10
681.4908736388
 20
-188.4978392291
 10
676.6947203289
 20
-185.728612876
 10
672.0250022962
 20
-183.0323350347
 10
667.4978249052
 20
-180.4183291777
 10
663.1287666848
 20
-177.8956146849
 10
658.9329162066
 20
-175.472879476
 10
654.9247193031
 20
-173.1584526259
 10
651.1180001405
 20
-170.9603165306
 10
647.5258874622
 20
-168.886064324
 10
644.1607460998
 20
-166.9428603242
 10
641.0341980469
 20
-165.1373792029
  0
LWPOLYLINE
  5
DD
330
1F
100
AcDbEntity
  8
0
  6
Continuous
 62
     1
370
    25
100
AcDbPolyline
 90
       16
 70
   128
 43
0.0
 10
692.1580197259
 20
-387.9843867406
 10
696.7369689227
 20
-390.77239263
 10
701.0523890223
 20
-393.6971345185
 10
705.0920485482
 20
-396.7503226166
 10
708.8445049604
 20
-399.9232953292
 10
712.2991109113
 20
-403.2070654455
 10
715.4460817465
 20
-406.5923226109
 10
718.2764876026
 20
-410.0694713432
 10
720.7823153099
 20
-413.6286546039
 10
722.9564578562
 20
-417.2597842109
 10
724.7927565331
 20
-420.95256517
 10
726.2859983024
 20
-424.6965306505
 10
727.4319553084
 20
-428.4810708776
 10
728.2273769753
 20
-432.2954589845
 10
728.6700084467
 20
-436.1288738221
 10
728.7696699383
 20
-439.0098937295
  0
LWPOLYLINE
  5
DE
330
1F
100
AcDbEntity
  8
0
  6
Continuous
 62
     1
370
    25
100
AcDbPolyline
 90
       46
 70
   128
 43
0.0
 10
478.7696742169
 20
-439.0098937295
 10
478.7807483013
 20
-438.0493297137
 10
479.0464525711
 20
-434.2104678053
 10
479.6657004112
 20
-430.3852098877
 10
480.6367321907
 20
-426.5844014408
 10
481.9567978279
 20
-422.8188088692
 10
483.622159424
 20
-419.0991179814
 10
485.6280859953
 20
-415.4358640387
 10
487.9689035223
 20
-411.8394332763
 10
490.6379659739
 20
-408.3200188026
 10
493.6277185275
 20
-404.8876023522
 10
496.9296751785
 20
-401.5519063838
 10
500.5344806437
 20
-398.3223887578
 10
504.4319222148
 20
-395.2082054803
 10
508.6109455637
 20
-392.2181833303
 10
513.0597061088
 20
-389.3607962892
 10
517.7655940401
 20
-386.644145012
 10
522.7152698798
 20
-384.0759302153
 10
527.8947013617
 20
-381.6634313874
 10
533.2892095286
 20
-379.4134862599
 10
538.8835042941
 20
-377.3324763604
 10
544.6617252724
 20
-375.4262973599
 10
550.6074891931
 20
-373.7003499486
 10
556.7039544391
 20
-372.1595329925
 10
562.9338302656
 20
-370.8082077979
 10
569.2794597774
 20
-369.6502110369
 10
575.7228515385
 20
-368.6888182513
 10
582.2457559635
 20
-367.9267605798
 10
588.8296626834
 20
-367.3661958654
 10
595.4559217176
 20
-367.0087116966
 10
602.1057461085
 20
-366.8553238866
 10
608.7602856781
 20
-366.9064643083
 10
615.4006744434
 20
-367.1619900177
 10
622.008104373
 20
-367.6211771719
 10
628.5638306563
 20
-368.28272407
 10
635.0492718013
 20
-369.1447541946
 10
641.446049148
 20
-370.2048268566
 10
647.7360316489
 20
-371.4599326328
 10
653.9013859187
 20
-372.9065161769
 10
659.9246368204
 20
-374.5404746978
 10
665.788709612
 20
-376.3571822913
 10
671.4769826301
 20
-378.3514838568
 10
676.9733281197
 20
-380.5177308337
 10
682.2621780887
 20
-382.849776639
 10
687.3285285882
 20
-385.341015635
 10
692.1580197259
 20
-387.9843867406
  0
LWPOLYLINE
  5
DF
330
1F
100
AcDbEntity
  8
0
  6
Continuous
 62
     1
370
    25
100
AcDbPolyline
 90
       19
 70
   128
 43
0.0
 10
692.1580197259
 20
-387.9843867406
 10
696.7736577543
 20
-390.6489212339
 10
701.1990495184
 20
-393.2035956963
 10
705.4216527086
 20
-395.6411758317
 10
709.429492681
 20
-397.9547308084
 10
713.2112108599
 20
-400.1377281233
 10
716.7560900919
 20
-402.1839630646
 10
720.0540836221
 20
-404.0876362762
 10
723.09583485
 20
-405.843365157
 10
725.8727300135
 20
-407.4461534432
 10
728.3768929203
 20
-408.8914794137
 10
730.6012244606
 20
-410.175221363
 10
732.5394210464
 20
-411.2937594967
 10
734.1859930506
 20
-412.2439257388
 10
735.5362674414
 20
-413.0229991642
 10
736.586414124
 20
-413.6288124558
 10
737.3334670138
 20
-414.0596119805
 10
737.7752976951
 20
-414.3141946637
 10
737.9111949398
 20
-414.3921756301
  0
LWPOLYLINE
  5
E0
330
1F
100
AcDbEntity
  8
0
  6
Continuous
 62
     1
370
    25
100
AcDbPolyline
 90
       43
 70
   128
 43
0.0
 10
521.4048466514
 20
-289.3921889645
 10
521.4053787553
 20
-289.3925083175
 10
521.5768657208
 20
-289.492023735
 10
522.0547280063
 20
-289.7684425067
 10
522.8375983088
 20
-290.2209405101
 10
523.9232657297
 20
-290.8482438424
 10
525.3086461404
 20
-291.648585101
 10
526.9898230121
 20
-292.6196980612
 10
528.9620189337
 20
-293.7588219608
 10
531.2196478014
 20
-295.0627504555
 10
533.756313831
 20
-296.527753105
 10
536.5648243993
 20
-298.1496713863
 10
539.637215069
 20
-299.9239589996
 10
542.9647798817
 20
-301.8455487905
 10
546.538087163
 20
-303.9089957204
 10
550.3470058643
 20
-306.1084616588
 10
554.3807384896
 20
-308.4377024582
 10
558.6278553406
 20
-310.8901151048
 10
563.0763155895
 20
-313.4587681399
 10
567.7135067919
 20
-316.1363484283
 10
572.5262870335
 20
-318.9152889152
 10
577.5010112721
 20
-321.7877108382
 10
582.6235866553
 20
-324.7454647877
 10
587.8794777888
 20
-327.7801580872
 10
593.2538068348
 20
-330.883206504
 10
598.7313166344
 20
-334.0458129579
 10
604.2964971473
 20
-337.2590040234
 10
609.9335643786
 20
-340.5136785972
 10
615.6265446729
 20
-343.8005896504
 10
621.3592905187
 20
-347.110456772
 10
627.1155701111
 20
-350.433865791
 10
632.8790568145
 20
-353.7614147826
 10
638.6334081886
 20
-357.0836684383
 10
644.3623213054
 20
-360.3911960888
 10
650.049551189
 20
-363.6746431859
 10
655.6789819382
 20
-366.9246811098
 10
661.2346451658
 20
-370.1321151515
 10
666.7008095606
 20
-373.287844969
 10
672.0619703507
 20
-376.382919336
 10
677.3029322802
 20
-379.4085840487
 10
682.4088385848
 20
-382.3562378168
 10
687.3652174198
 20
-385.2175442389
 10
692.1580197259
 20
-387.9843867406
  0
ENDSEC
  0
SECTION
  2
OBJECTS
  0
DICTIONARY
  5
C
330
0
100
AcDbDictionary
281
     1
  3
ACAD_GROUP
350
D
  3
ACAD_LAYOUT
350
1A
  3
ACAD_MLINESTYLE
350
17
  3
ACAD_PLOTSETTINGS
350
19
  3
ACAD_PLOTSTYLENAME
350
E
  3
ACAD_SCALELIST
350
47
  0
DICTIONARY
  5
D
102
{ACAD_REACTORS
330
C
102
}
330
C
100
AcDbDictionary
281
     1
  0
DICTIONARY
  5
1A
102
{ACAD_REACTORS
330
C
102
}
330
C
100
AcDbDictionary
281
     1
  3
Layout1
350
1E
  3
Layout2
350
26
  3
Model
350
22
  0
DICTIONARY
  5
17
102
{ACAD_REACTORS
330
C
102
}
330
C
100
AcDbDictionary
281
     1
  3
Standard
350
18
  0
DICTIONARY
  5
19
102
{ACAD_REACTORS
330
C
102
}
330
C
100
AcDbDictionary
281
     1
  0
ACDBDICTIONARYWDFLT
  5
E
102
{ACAD_REACTORS
330
C
102
}
330
C
100
AcDbDictionary
281
     1
  3
Normal
350
F
100
AcDbDictionaryWithDefault
340
F
  0
DICTIONARY
  5
47
102
{ACAD_REACTORS
330
C
102
}
330
C
100
AcDbDictionary
281
     1
  3
A0
350
48
  3
A1
350
49
  3
A2
350
4A
  3
A3
350
4B
  3
A4
350
4C
  3
A5
350
4D
  3
A6
350
4E
  3
A7
350
4F
  3
A8
350
50
  3
A9
350
51
  3
B0
350
52
  3
B1
350
53
  3
B2
350
54
  3
B3
350
55
  3
B4
350
56
  3
B5
350
57
  3
B6
350
58
  3
B7
350
59
  3
B8
350
5A
  3
B9
350
5B
  3
C0
350
5C
  3
C1
350
5D
  3
C2
350
5E
  3
C3
350
5F
  3
C4
350
60
  3
C5
350
61
  3
C6
350
62
  3
C7
350
63
  3
C8
350
64
  3
C9
350
65
  3
D0
350
66
  3
D1
350
67
  3
D2
350
68
  0
LAYOUT
  5
1E
102
{ACAD_REACTORS
330
1A
102
}
330
1A
100
AcDbPlotSettings
  1

  2
none_device
  4

  6

 40
0.0
 41
0.0
 42
0.0
 43
0.0
 44
0.0
 45
0.0
 46
0.0
 47
0.0
 48
0.0
 49
0.0
140
0.0
141
0.0
142
1.0
143
1.0
 70
   688
 72
     1
 73
     0
 74
     5
  7

 75
    16
147
1.0
148
0.0
149
0.0
100
AcDbLayout
  1
Layout1
 70
     1
 71
     1
 10
0.0
 20
0.0
 11
420.0
 21
297.0
 12
0.0
 22
0.0
 32
0.0
 14
1.0000000000E+20
 24
1.0000000000E+20
 34
1.0000000000E+20
 15
-1.0000000000E+20
 25
-1.0000000000E+20
 35
-1.0000000000E+20
146
0.0
 13
0.0
 23
0.0
 33
0.0
 16
1.0
 26
0.0
 36
0.0
 17
0.0
 27
1.0
 37
0.0
 76
     0
330
1B
  0
LAYOUT
  5
26
102
{ACAD_REACTORS
330
1A
102
}
330
1A
100
AcDbPlotSettings
  1

  2
none_device
  4

  6

 40
0.0
 41
0.0
 42
0.0
 43
0.0
 44
0.0
 45
0.0
 46
0.0
 47
0.0
 48
0.0
 49
0.0
140
0.0
141
0.0
142
1.0
143
1.0
 70
   688
 72
     1
 73
     0
 74
     5
  7

 75
    16
147
1.0
148
0.0
149
0.0
100
AcDbLayout
  1
Layout2
 70
     1
 71
     2
 10
0.0
 20
0.0
 11
0.0
 21
0.0
 12
0.0
 22
0.0
 32
0.0
 14
0.0
 24
0.0
 34
0.0
 15
0.0
 25
0.0
 35
0.0
146
0.0
 13
0.0
 23
0.0
 33
0.0
 16
1.0
 26
0.0
 36
0.0
 17
0.0
 27
1.0
 37
0.0
 76
     0
330
23
  0
LAYOUT
  5
22
102
{ACAD_REACTORS
330
1A
102
}
330
1A
100
AcDbPlotSettings
  1

  2
none_device
  4
Letter_(8.50_x_11.00_Inches)
  6

 40
6.35
 41
6.35
 42
6.35000508
 43
6.35000508
 44
215.9
 45
279.4
 46
0.0
 47
0.0
 48
0.0
 49
0.0
140
0.0
141
0.0
142
1.0
143
1.0
 70
  1712
 72
     1
 73
     0
 74
     0
  7

 75
     0
147
1.0
148
0.0
149
0.0
100
AcDbLayout
  1
Model
 70
     1
 71
     0
 10
0.0
 20
0.0
 11
279.4
 21
215.9
 12
0.0
 22
0.0
 32
0.0
 14
0.0
 24
0.0
 34
0.0
 15
279.4
 25
215.9
 35
0.0
146
0.0
 13
0.0
 23
0.0
 33
0.0
 16
1.0
 26
0.0
 36
0.0
 17
0.0
 27
1.0
 37
0.0
 76
     0
330
1F
331
29
  0
MLINESTYLE
  5
18
102
{ACAD_REACTORS
330
17
102
}
330
17
100
AcDbMlineStyle
  2
Standard
 70
     0
  3

 62
   256
 51
90.0
 52
90.0
 71
     2
 49
0.5
 62
   256
  6
BYLAYER
 49
-0.5
 62
   256
  6
BYLAYER
  0
ACDBPLACEHOLDER
  5
F
102
{ACAD_REACTORS
330
E
102
}
330
E
  0
SCALE
  5
48
102
{ACAD_REACTORS
330
47
102
}
330
47
100
AcDbScale
 70
     0
300
1:1
140
1.0
141
1.0
290
     1
  0
SCALE
  5
49
102
{ACAD_REACTORS
330
47
102
}
330
47
100
AcDbScale
 70
     0
300
1:2
140
1.0
141
2.0
290
     0
  0
SCALE
  5
4A
102
{ACAD_REACTORS
330
47
102
}
330
47
100
AcDbScale
 70
     0
300
1:4
140
1.0
141
4.0
290
     0
  0
SCALE
  5
4B
102
{ACAD_REACTORS
330
47
102
}
330
47
100
AcDbScale
 70
     0
300
1:5
140
1.0
141
5.0
290
     0
  0
SCALE
  5
4C
102
{ACAD_REACTORS
330
47
102
}
330
47
100
AcDbScale
 70
     0
300
1:8
140
1.0
141
8.0
290
     0
  0
SCALE
  5
4D
102
{ACAD_REACTORS
330
47
102
}
330
47
100
AcDbScale
 70
     0
300
1:10
140
1.0
141
10.0
290
     0
  0
SCALE
  5
4E
102
{ACAD_REACTORS
330
47
102
}
330
47
100
AcDbScale
 70
     0
300
1:16
140
1.0
141
16.0
290
     0
  0
SCALE
  5
4F
102
{ACAD_REACTORS
330
47
102
}
330
47
100
AcDbScale
 70
     0
300
1:20
140
1.0
141
20.0
290
     0
  0
SCALE
  5
50
102
{ACAD_REACTORS
330
47
102
}
330
47
100
AcDbScale
 70
     0
300
1:30
140
1.0
141
30.0
290
     0
  0
SCALE
  5
51
102
{ACAD_REACTORS
330
47
102
}
330
47
100
AcDbScale
 70
     0
300
1:40
140
1.0
141
40.0
290
     0
  0
SCALE
  5
52
102
{ACAD_REACTORS
330
47
102
}
330
47
100
AcDbScale
 70
     0
300
1:50
140
1.0
141
50.0
290
     0
  0
SCALE
  5
53
102
{ACAD_REACTORS
330
47
102
}
330
47
100
AcDbScale
 70
     0
300
1:100
140
1.0
141
100.0
290
     0
  0
SCALE
  5
54
102
{ACAD_REACTORS
330
47
102
}
330
47
100
AcDbScale
 70
     0
300
2:1
140
2.0
141
1.0
290
     0
  0
SCALE
  5
55
102
{ACAD_REACTORS
330
47
102
}
330
47
100
AcDbScale
 70
     0
300
4:1
140
4.0
141
1.0
290
     0
  0
SCALE
  5
56
102
{ACAD_REACTORS
330
47
102
}
330
47
100
AcDbScale
 70
     0
300
8:1
140
8.0
141
1.0
290
     0
  0
SCALE
  5
57
102
{ACAD_REACTORS
330
47
102
}
330
47
100
AcDbScale
 70
     0
300
10:1
140
10.0
141
1.0
290
     0
  0
SCALE
  5
58
102
{ACAD_REACTORS
330
47
102
}
330
47
100
AcDbScale
 70
     0
300
100:1
140
100.0
141
1.0
290
     0
  0
SCALE
  5
59
102
{ACAD_REACTORS
330
47
102
}
330
47
100
AcDbScale
 70
     0
300
1/128" = 1'-0"
140
0.0078125
141
12.0
290
     0
  0
SCALE
  5
5A
102
{ACAD_REACTORS
330
47
102
}
330
47
100
AcDbScale
 70
     0
300
1/64" = 1'-0"
140
0.015625
141
12.0
290
     0
  0
SCALE
  5
5B
102
{ACAD_REACTORS
330
47
102
}
330
47
100
AcDbScale
 70
     0
300
1/32" = 1'-0"
140
0.03125
141
12.0
290
     0
  0
SCALE
  5
5C
102
{ACAD_REACTORS
330
47
102
}
330
47
100
AcDbScale
 70
     0
300
1/16" = 1'-0"
140
0.0625
141
12.0
290
     0
  0
SCALE
  5
5D
102
{ACAD_REACTORS
330
47
102
}
330
47
100
AcDbScale
 70
     0
300
3/32" = 1'-0"
140
0.09375
141
12.0
290
     0
  0
SCALE
  5
5E
102
{ACAD_REACTORS
330
47
102
}
330
47
100
AcDbScale
 70
     0
300
1/8" = 1'-0"
140
0.125
141
12.0
290
     0
  0
SCALE
  5
5F
102
{ACAD_REACTORS
330
47
102
}
330
47
100
AcDbScale
 70
     0
300
3/16" = 1'-0"
140
0.1875
141
12.0
290
     0
  0
SCALE
  5
60
102
{ACAD_REACTORS
330
47
102
}
330
47
100
AcDbScale
 70
     0
300
1/4" = 1'-0"
140
0.25
141
12.0
290
     0
  0
SCALE
  5
61
102
{ACAD_REACTORS
330
47
102
}
330
47
100
AcDbScale
 70
     0
300
3/8" = 1'-0"
140
0.375
141
12.0
290
     0
  0
SCALE
  5
62
102
{ACAD_REACTORS
330
47
102
}
330
47
100
AcDbScale
 70
     0
300
1/2" = 1'-0"
140
0.5
141
12.0
290
     0
  0
SCALE
  5
63
102
{ACAD_REACTORS
330
47
102
}
330
47
100
AcDbScale
 70
     0
300
3/4" = 1'-0"
140
0.75
141
12.0
290
     0
  0
SCALE
  5
64
102
{ACAD_REACTORS
330
47
102
}
330
47
100
AcDbScale
 70
     0
300
1" = 1'-0"
140
1.0
141
12.0
290
     0
  0
SCALE
  5
65
102
{ACAD_REACTORS
330
47
102
}
330
47
100
AcDbScale
 70
     0
300
1-1/2" = 1'-0"
140
1.5
141
12.0
290
     0
  0
SCALE
  5
66
102
{ACAD_REACTORS
330
47
102
}
330
47
100
AcDbScale
 70
     0
300
3" = 1'-0"
140
3.0
141
12.0
290
     0
  0
SCALE
  5
67
102
{ACAD_REACTORS
330
47
102
}
330
47
100
AcDbScale
 70
     0
300
6" = 1'-0"
140
6.0
141
12.0
290
     0
  0
SCALE
  5
68
102
{ACAD_REACTORS
330
47
102
}
330
47
100
AcDbScale
 70
     0
300
1'-0" = 1'-0"
140
12.0
141
12.0
290
     0
  0
ENDSEC
  0
EOF
